  0
SECTION
  2
HEADER
  9
$ACADVER
  1
AC1018
  9
$ACADMAINTVER
 70
     0
  9
$DWGCODEPAGE
  3
ANSI_932
  9
$INSBASE
 10
0.0
 20
0.0
 30
0.0
  9
$EXTMIN
 10
-0.0000000000000284
 20
0.0
 30
0.0
  9
$EXTMAX
 10
157.0
 20
82.0
 30
0.0
  9
$LIMMIN
 10
0.0
 20
0.0
  9
$LIMMAX
 10
12.0
 20
9.0
  9
$ORTHOMODE
 70
     0
  9
$REGENMODE
 70
     1
  9
$FILLMODE
 70
     1
  9
$QTEXTMODE
 70
     0
  9
$MIRRTEXT
 70
     1
  9
$LTSCALE
 40
1.0
  9
$ATTMODE
 70
     1
  9
$TEXTSIZE
 40
0.2
  9
$TRACEWID
 40
0.05
  9
$TEXTSTYLE
  7
Standard
  9
$CLAYER
  8
0
  9
$CELTYPE
  6
ByLayer
  9
$CECOLOR
 62
   256
  9
$CELTSCALE
 40
1.0
  9
$DISPSILH
 70
     0
  9
$DIMSCALE
 40
1.0
  9
$DIMASZ
 40
0.18
  9
$DIMEXO
 40
0.0625
  9
$DIMDLI
 40
0.38
  9
$DIMRND
 40
0.0
  9
$DIMDLE
 40
0.0
  9
$DIMEXE
 40
0.18
  9
$DIMTP
 40
0.0
  9
$DIMTM
 40
0.0
  9
$DIMTXT
 40
0.18
  9
$DIMCEN
 40
0.09
  9
$DIMTSZ
 40
0.0
  9
$DIMTOL
 70
     0
  9
$DIMLIM
 70
     0
  9
$DIMTIH
 70
     1
  9
$DIMTOH
 70
     1
  9
$DIMSE1
 70
     0
  9
$DIMSE2
 70
     0
  9
$DIMTAD
 70
     0
  9
$DIMZIN
 70
     0
  9
$DIMBLK
  1

  9
$DIMASO
 70
     1
  9
$DIMSHO
 70
     1
  9
$DIMPOST
  1

  9
$DIMAPOST
  1

  9
$DIMALT
 70
     0
  9
$DIMALTD
 70
     2
  9
$DIMALTF
 40
25.4
  9
$DIMLFAC
 40
1.0
  9
$DIMTOFL
 70
     0
  9
$DIMTVP
 40
0.0
  9
$DIMTIX
 70
     0
  9
$DIMSOXD
 70
     0
  9
$DIMSAH
 70
     0
  9
$DIMBLK1
  1

  9
$DIMBLK2
  1

  9
$DIMSTYLE
  2
Standard
  9
$DIMCLRD
 70
     0
  9
$DIMCLRE
 70
     0
  9
$DIMCLRT
 70
     0
  9
$DIMTFAC
 40
1.0
  9
$DIMGAP
 40
0.09
  9
$DIMJUST
 70
     0
  9
$DIMSD1
 70
     0
  9
$DIMSD2
 70
     0
  9
$DIMTOLJ
 70
     1
  9
$DIMTZIN
 70
     0
  9
$DIMALTZ
 70
     0
  9
$DIMALTTZ
 70
     0
  9
$DIMUPT
 70
     0
  9
$DIMDEC
 70
     4
  9
$DIMTDEC
 70
     4
  9
$DIMALTU
 70
     2
  9
$DIMALTTD
 70
     2
  9
$DIMTXSTY
  7
Standard
  9
$DIMAUNIT
 70
     0
  9
$DIMADEC
 70
     0
  9
$DIMALTRND
 40
0.0
  9
$DIMAZIN
 70
     0
  9
$DIMDSEP
 70
    46
  9
$DIMATFIT
 70
     3
  9
$DIMFRAC
 70
     0
  9
$DIMLDRBLK
  1

  9
$DIMLUNIT
 70
     2
  9
$DIMLWD
 70
    -2
  9
$DIMLWE
 70
    -2
  9
$DIMTMOVE
 70
     0
  9
$LUNITS
 70
     2
  9
$LUPREC
 70
     2
  9
$SKETCHINC
 40
0.1
  9
$FILLETRAD
 40
0.5
  9
$AUNITS
 70
     0
  9
$AUPREC
 70
     0
  9
$MENU
  1
.
  9
$ELEVATION
 40
0.0
  9
$PELEVATION
 40
0.0
  9
$THICKNESS
 40
0.0
  9
$LIMCHECK
 70
     0
  9
$CHAMFERA
 40
0.5
  9
$CHAMFERB
 40
0.5
  9
$CHAMFERC
 40
1.0
  9
$CHAMFERD
 40
0.0
  9
$SKPOLY
 70
     0
  9
$TDCREATE
 40
2458232.756794757
  9
$TDUCREATE
 40
2458232.381794757
  9
$TDUPDATE
 40
2458232.756794768
  9
$TDUUPDATE
 40
2458232.381794768
  9
$TDINDWG
 40
0.0000000116
  9
$TDUSRTIMER
 40
0.0000000116
  9
$USRTIMER
 70
     1
  9
$ANGBASE
 50
0.0
  9
$ANGDIR
 70
     0
  9
$PDMODE
 70
     0
  9
$PDSIZE
 40
0.0
  9
$PLINEWID
 40
0.0
  9
$SPLFRAME
 70
     0
  9
$SPLINETYPE
 70
     6
  9
$SPLINESEGS
 70
     8
  9
$HANDSEED
  5
BC
  9
$SURFTAB1
 70
     6
  9
$SURFTAB2
 70
     6
  9
$SURFTYPE
 70
     6
  9
$SURFU
 70
     6
  9
$SURFV
 70
     6
  9
$UCSBASE
  2

  9
$UCSNAME
  2

  9
$UCSORG
 10
0.0
 20
0.0
 30
0.0
  9
$UCSXDIR
 10
1.0
 20
0.0
 30
0.0
  9
$UCSYDIR
 10
0.0
 20
1.0
 30
0.0
  9
$UCSORTHOREF
  2

  9
$UCSORTHOVIEW
 70
     0
  9
$UCSORGTOP
 10
0.0
 20
0.0
 30
0.0
  9
$UCSORGBOTTOM
 10
0.0
 20
0.0
 30
0.0
  9
$UCSORGLEFT
 10
0.0
 20
0.0
 30
0.0
  9
$UCSORGRIGHT
 10
0.0
 20
0.0
 30
0.0
  9
$UCSORGFRONT
 10
0.0
 20
0.0
 30
0.0
  9
$UCSORGBACK
 10
0.0
 20
0.0
 30
0.0
  9
$PUCSBASE
  2

  9
$PUCSNAME
  2

  9
$PUCSORG
 10
0.0
 20
0.0
 30
0.0
  9
$PUCSXDIR
 10
1.0
 20
0.0
 30
0.0
  9
$PUCSYDIR
 10
0.0
 20
1.0
 30
0.0
  9
$PUCSORTHOREF
  2

  9
$PUCSORTHOVIEW
 70
     0
  9
$PUCSORGTOP
 10
0.0
 20
0.0
 30
0.0
  9
$PUCSORGBOTTOM
 10
0.0
 20
0.0
 30
0.0
  9
$PUCSORGLEFT
 10
0.0
 20
0.0
 30
0.0
  9
$PUCSORGRIGHT
 10
0.0
 20
0.0
 30
0.0
  9
$PUCSORGFRONT
 10
0.0
 20
0.0
 30
0.0
  9
$PUCSORGBACK
 10
0.0
 20
0.0
 30
0.0
  9
$USERI1
 70
     0
  9
$USERI2
 70
     0
  9
$USERI3
 70
     0
  9
$USERI4
 70
     0
  9
$USERI5
 70
     0
  9
$USERR1
 40
0.0
  9
$USERR2
 40
0.0
  9
$USERR3
 40
0.0
  9
$USERR4
 40
0.0
  9
$USERR5
 40
0.0
  9
$WORLDVIEW
 70
     1
  9
$SHADEDGE
 70
     3
  9
$SHADEDIF
 70
    70
  9
$TILEMODE
 70
     1
  9
$MAXACTVP
 70
    64
  9
$PINSBASE
 10
0.0
 20
0.0
 30
0.0
  9
$PLIMCHECK
 70
     0
  9
$PEXTMIN
 10
1.000000000000000E+20
 20
1.000000000000000E+20
 30
1.000000000000000E+20
  9
$PEXTMAX
 10
-1.000000000000000E+20
 20
-1.000000000000000E+20
 30
-1.000000000000000E+20
  9
$PLIMMIN
 10
0.0
 20
0.0
  9
$PLIMMAX
 10
12.0
 20
9.0
  9
$UNITMODE
 70
     0
  9
$VISRETAIN
 70
     1
  9
$PLINEGEN
 70
     0
  9
$PSLTSCALE
 70
     1
  9
$TREEDEPTH
 70
  3020
  9
$CMLSTYLE
  2
Standard
  9
$CMLJUST
 70
     0
  9
$CMLSCALE
 40
1.0
  9
$PROXYGRAPHICS
 70
     1
  9
$MEASUREMENT
 70
     0
  9
$CELWEIGHT
370
    -1
  9
$ENDCAPS
280
     0
  9
$JOINSTYLE
280
     0
  9
$LWDISPLAY
290
     0
  9
$INSUNITS
 70
     4
  9
$HYPERLINKBASE
  1

  9
$STYLESHEET
  1

  9
$XEDIT
290
     1
  9
$CEPSNTYPE
380
     0
  9
$PSTYLEMODE
290
     1
  9
$FINGERPRINTGUID
  2
{45ED2C49-80E3-447C-A07F-E2D823F2FDF9}
  9
$VERSIONGUID
  2
{FAEB1C32-E019-11D5-929B-00C0DF256EC4}
  9
$EXTNAMES
290
     1
  9
$PSVPSCALE
 40
0.0
  9
$OLESTARTUP
290
     0
  9
$SORTENTS
280
   127
  9
$INDEXCTL
280
     0
  9
$HIDETEXT
280
     1
  9
$XCLIPFRAME
290
     0
  9
$HALOGAP
280
     0
  9
$OBSCOLOR
 70
   257
  9
$OBSLTYPE
280
     0
  9
$INTERSECTIONDISPLAY
280
     0
  9
$INTERSECTIONCOLOR
 70
   257
  9
$DIMASSOC
280
     2
  9
$PROJECTNAME
  1

  0
ENDSEC
  0
SECTION
  2
CLASSES
  0
CLASS
  1
ACDBDICTIONARYWDFLT
  2
AcDbDictionaryWithDefault
  3
ObjectDBX Classes
 90
        0
 91
        3
280
     0
281
     0
  0
CLASS
  1
VISUALSTYLE
  2
AcDbVisualStyle
  3
ObjectDBX Classes
 90
     4095
 91
        3
280
     0
281
     0
  0
ENDSEC
  0
SECTION
  2
TABLES
  0
TABLE
  2
VPORT
  5
8
330
0
100
AcDbSymbolTable
 70
     1
  0
VPORT
  5
29
330
8
100
AcDbSymbolTableRecord
100
AcDbViewportTableRecord
  2
*Active
 70
     0
 10
0.0
 20
0.0
 11
1.0
 21
1.0
 12
0.0
 22
0.0
 13
0.0
 23
0.0
 14
0.5
 24
0.5
 15
0.5
 25
0.5
 16
0.0
 26
0.0
 36
1.0
 17
78.5
 27
41.0
 37
0.0
 40
83.64
 41
1.914634146341464
 42
50.0
 43
0.0
 44
0.0
 50
0.0
 51
0.0
 71
     0
 72
   100
 73
     1
 74
     3
 75
     0
 76
     0
 77
     0
 78
     0
281
     0
 65
     1
110
0.0
120
0.0
130
0.0
111
1.0
121
0.0
131
0.0
112
0.0
122
1.0
132
0.0
 79
     0
146
0.0
  0
ENDTAB
  0
TABLE
  2
LTYPE
  5
5
330
0
100
AcDbSymbolTable
 70
     1
  0
LTYPE
  5
14
330
5
100
AcDbSymbolTableRecord
100
AcDbLinetypeTableRecord
  2
ByBlock
 70
     0
  3

 72
    65
 73
     0
 40
0.0
  0
LTYPE
  5
15
330
5
100
AcDbSymbolTableRecord
100
AcDbLinetypeTableRecord
  2
ByLayer
 70
     0
  3

 72
    65
 73
     0
 40
0.0
  0
LTYPE
  5
16
330
5
100
AcDbSymbolTableRecord
100
AcDbLinetypeTableRecord
  2
Continuous
 70
     0
  3
Solid line
 72
    65
 73
     0
 40
0.0
  0
ENDTAB
  0
TABLE
  2
LAYER
  5
2
330
0
100
AcDbSymbolTable
 70
     3
  0
LAYER
  5
10
330
2
100
AcDbSymbolTableRecord
100
AcDbLayerTableRecord
  2
0
 70
     0
 62
     7
  6
Continuous
370
    -3
390
F
  0
LAYER
  5
3B
330
2
100
AcDbSymbolTableRecord
100
AcDbLayerTableRecord
  2
______
 70
     0
 62
     7
  6
Continuous
370
    -3
390
F
  0
LAYER
  5
40
330
2
100
AcDbSymbolTableRecord
100
AcDbLayerTableRecord
  2
MAKE2D VISIBLE LINES
 70
     0
 62
     7
  6
Continuous
370
    -3
390
F
  0
ENDTAB
  0
TABLE
  2
STYLE
  5
3
330
0
100
AcDbSymbolTable
 70
     1
  0
STYLE
  5
11
330
3
100
AcDbSymbolTableRecord
100
AcDbTextStyleTableRecord
  2
Standard
 70
     0
 40
0.0
 41
1.0
 50
0.0
 71
     0
 42
0.2
  3
txt
  4

  0
ENDTAB
  0
TABLE
  2
VIEW
  5
6
330
0
100
AcDbSymbolTable
 70
     0
  0
ENDTAB
  0
TABLE
  2
UCS
  5
7
330
0
100
AcDbSymbolTable
 70
     0
  0
ENDTAB
  0
TABLE
  2
APPID
  5
9
330
0
100
AcDbSymbolTable
 70
     1
  0
APPID
  5
12
330
9
100
AcDbSymbolTableRecord
100
AcDbRegAppTableRecord
  2
ACAD
 70
     0
  0
ENDTAB
  0
TABLE
  2
DIMSTYLE
  5
A
330
0
100
AcDbSymbolTable
 70
     1
100
AcDbDimStyleTable
  0
DIMSTYLE
105
27
330
A
100
AcDbSymbolTableRecord
100
AcDbDimStyleTableRecord
  2
Standard
 70
     0
340
11
  0
ENDTAB
  0
TABLE
  2
BLOCK_RECORD
  5
1
330
0
100
AcDbSymbolTable
 70
     1
  0
BLOCK_RECORD
  5
1F
330
1
100
AcDbSymbolTableRecord
100
AcDbBlockTableRecord
  2
*Model_Space
340
22
  0
BLOCK_RECORD
  5
1B
330
1
100
AcDbSymbolTableRecord
100
AcDbBlockTableRecord
  2
*Paper_Space
340
1E
  0
BLOCK_RECORD
  5
23
330
1
100
AcDbSymbolTableRecord
100
AcDbBlockTableRecord
  2
*Paper_Space0
340
26
  0
ENDTAB
  0
ENDSEC
  0
SECTION
  2
BLOCKS
  0
BLOCK
  5
20
330
1F
100
AcDbEntity
  8
0
100
AcDbBlockBegin
  2
*Model_Space
 70
     0
 71
     0
 10
0.0
 20
0.0
 30
0.0
  3
*Model_Space
  1

  0
ENDBLK
  5
21
330
1F
100
AcDbEntity
  8
0
100
AcDbBlockEnd
  0
BLOCK
  5
1C
330
1B
100
AcDbEntity
 67
     1
  8
0
100
AcDbBlockBegin
  2
*Paper_Space
 70
     0
 71
     0
 10
0.0
 20
0.0
 30
0.0
  3
*Paper_Space
  1

  0
ENDBLK
  5
1D
330
1B
100
AcDbEntity
 67
     1
  8
0
100
AcDbBlockEnd
  0
BLOCK
  5
24
330
23
100
AcDbEntity
  8
0
100
AcDbBlockBegin
  2
*Paper_Space0
 70
     0
 71
     0
 10
0.0
 20
0.0
 30
0.0
  3
*Paper_Space0
  1

  0
ENDBLK
  5
25
330
23
100
AcDbEntity
  8
0
100
AcDbBlockEnd
  0
ENDSEC
  0
SECTION
  2
ENTITIES
  0
POLYLINE
  5
3C
330
1F
100
AcDbEntity
  8
______
100
AcDb2dPolyline
 66
     1
 10
0.0
 20
0.0
 30
0.0
  0
VERTEX
  5
3E
330
3C
100
AcDbEntity
  8
______
100
AcDbVertex
100
AcDb2dVertex
 10
57.00000000000003
 20
68.0
 30
0.0
  0
VERTEX
  5
3F
330
3C
100
AcDbEntity
  8
______
100
AcDbVertex
100
AcDb2dVertex
 10
151.0
 20
68.0
 30
0.0
  0
SEQEND
  5
3D
330
3C
100
AcDbEntity
  8
______
  0
SPLINE
  5
41
330
1F
100
AcDbEntity
  8
MAKE2D VISIBLE LINES
100
AcDbSpline
210
0.0
220
0.0
230
1.0
 70
    15
 71
     2
 72
    12
 73
     9
 74
     0
 42
0.0000000001
 43
0.0000000001
 40
0.0
 40
0.0
 40
0.0
 40
2.356194490192357
 40
2.356194490192357
 40
4.712388980384708
 40
4.712388980384708
 40
7.068583470577064
 40
7.068583470577064
 40
9.424777960769418
 40
9.424777960769418
 40
9.424777960769418
 10
105.5
 20
62.0
 30
0.0
 41
1.0
 10
105.5
 20
63.50000000000004
 30
0.0
 41
0.7071067811865341
 10
104.0
 20
63.5
 30
0.0
 41
1.0
 10
102.5
 20
63.49999999999999
 30
0.0
 41
0.7071067811865408
 10
102.5
 20
62.0
 30
0.0
 41
1.0
 10
102.5
 20
60.49999999999996
 30
0.0
 41
0.7071067811865426
 10
104.0
 20
60.5
 30
0.0
 41
1.0
 10
105.5
 20
60.49999999999997
 30
0.0
 41
0.7071067811865375
 10
105.5
 20
62.0
 30
0.0
 41
1.0
  0
ARC
  5
42
330
1F
100
AcDbEntity
  8
______
100
AcDbCircle
 10
151.0
 20
62.0
 30
0.0
 40
6.0
100
AcDbArc
 50
270.0
 51
90.0
  0
ARC
  5
43
330
1F
100
AcDbEntity
  8
______
100
AcDbCircle
 10
57.00000000000003
 20
62.0
 30
0.0
 40
6.0
100
AcDbArc
 50
0.0
 51
90.0
  0
POLYLINE
  5
44
330
1F
100
AcDbEntity
  8
______
100
AcDb2dPolyline
 66
     1
 10
0.0
 20
0.0
 30
0.0
210
0.0
220
0.0
230
-1.0
  0
VERTEX
  5
46
330
44
100
AcDbEntity
  8
______
100
AcDbVertex
100
AcDb2dVertex
 10
-151.0
 20
56.0
 30
0.0
  0
VERTEX
  5
47
330
44
100
AcDbEntity
  8
______
100
AcDbVertex
100
AcDb2dVertex
 10
-63.00000000000003
 20
56.0
 30
0.0
  0
VERTEX
  5
48
330
44
100
AcDbEntity
  8
______
100
AcDbVertex
100
AcDb2dVertex
 10
-63.00000000000003
 20
62.0
 30
0.0
  0
SEQEND
  5
45
330
44
100
AcDbEntity
  8
______
  0
POLYLINE
  5
49
330
1F
100
AcDbEntity
  8
______
100
AcDb2dPolyline
 66
     1
 10
0.0
 20
0.0
 30
0.0
  0
VERTEX
  5
4B
330
49
100
AcDbEntity
  8
______
100
AcDbVertex
100
AcDb2dVertex
 10
151.0
 20
6.0
 30
0.0
  0
VERTEX
  5
4C
330
49
100
AcDbEntity
  8
______
100
AcDbVertex
100
AcDb2dVertex
 10
151.0
 20
12.0
 30
0.0
  0
SEQEND
  5
4A
330
49
100
AcDbEntity
  8
______
  0
SPLINE
  5
4D
330
1F
100
AcDbEntity
  8
MAKE2D VISIBLE LINES
100
AcDbSpline
210
0.0
220
0.0
230
1.0
 70
    12
 71
     2
 72
     8
 73
     5
 74
     0
 42
0.0000000001
 43
0.0000000001
 40
0.0
 40
0.0
 40
0.0
 40
9.424777960769372
 40
9.424777960769372
 40
18.84955592153875
 40
18.84955592153875
 40
18.84955592153875
 10
151.0
 20
26.0
 30
0.0
 41
1.0
 10
157.0
 20
26.0
 30
0.0
 41
0.7071067811865492
 10
157.0
 20
20.0
 30
0.0
 41
1.0
 10
157.0
 20
14.00000000000001
 30
0.0
 41
0.7071067811865476
 10
151.0
 20
14.0
 30
0.0
 41
1.0
  0
SPLINE
  5
4E
330
1F
100
AcDbEntity
  8
MAKE2D VISIBLE LINES
100
AcDbSpline
210
0.0
220
0.0
230
1.0
 70
    24
 71
     2
 72
     6
 73
     3
 74
     0
 42
0.0000000001
 43
0.0000000001
 40
0.0
 40
0.0
 40
0.0
 40
48.0
 40
48.0
 40
48.0
 10
103.0
 20
14.0
 30
0.0
 10
127.0
 20
14.0
 30
0.0
 10
151.0
 20
14.0
 30
0.0
  0
SPLINE
  5
4F
330
1F
100
AcDbEntity
  8
MAKE2D VISIBLE LINES
100
AcDbSpline
210
0.0
220
0.0
230
1.0
 70
    15
 71
     2
 72
    12
 73
     9
 74
     0
 42
0.0000000001
 43
0.0000000001
 40
0.0
 40
0.0
 40
0.0
 40
2.356194490192341
 40
2.356194490192341
 40
4.712388980384681
 40
4.712388980384681
 40
7.068583470577027
 40
7.068583470577027
 40
9.424777960769372
 40
9.424777960769372
 40
9.424777960769372
 10
149.5
 20
20.0
 30
0.0
 41
1.0
 10
149.5
 20
21.5
 30
0.0
 41
0.7071067811865507
 10
151.0
 20
21.5
 30
0.0
 41
1.0
 10
152.5
 20
21.49999999999999
 30
0.0
 41
0.707106781186554
 10
152.5
 20
20.0
 30
0.0
 41
1.0
 10
152.5
 20
18.49999999999999
 30
0.0
 41
0.7071067811865479
 10
151.0
 20
18.5
 30
0.0
 41
1.0
 10
149.5
 20
18.5
 30
0.0
 41
0.70710678118655
 10
149.5
 20
20.0
 30
0.0
 41
1.0
  0
SPLINE
  5
50
330
1F
100
AcDbEntity
  8
MAKE2D VISIBLE LINES
100
AcDbSpline
210
0.0
220
0.0
230
1.0
 70
    15
 71
     2
 72
    12
 73
     9
 74
     0
 42
0.0000000001
 43
0.0000000001
 40
0.0
 40
0.0
 40
0.0
 40
2.356194490192339
 40
2.356194490192339
 40
4.712388980384678
 40
4.712388980384678
 40
7.068583470577016
 40
7.068583470577016
 40
9.424777960769362
 40
9.424777960769362
 40
9.424777960769362
 10
101.5
 20
20.0
 30
0.0
 41
1.0
 10
101.5
 20
21.49999999999999
 30
0.0
 41
0.7071067811865542
 10
103.0
 20
21.5
 30
0.0
 41
1.0
 10
104.5
 20
21.5
 30
0.0
 41
0.7071067811865542
 10
104.5
 20
20.0
 30
0.0
 41
1.0
 10
104.5
 20
18.50000000000001
 30
0.0
 41
0.7071067811865492
 10
103.0
 20
18.5
 30
0.0
 41
1.0
 10
101.5
 20
18.49999999999999
 30
0.0
 41
0.7071067811865476
 10
101.5
 20
20.0
 30
0.0
 41
1.0
  0
POLYLINE
  5
51
330
1F
100
AcDbEntity
  8
______
100
AcDb2dPolyline
 66
     1
 10
0.0
 20
0.0
 30
0.0
  0
VERTEX
  5
53
330
51
100
AcDbEntity
  8
______
100
AcDbVertex
100
AcDb2dVertex
 10
115.0
 20
6.0
 30
0.0
  0
VERTEX
  5
54
330
51
100
AcDbEntity
  8
______
100
AcDbVertex
100
AcDb2dVertex
 10
115.0
 20
12.0
 30
0.0
  0
SEQEND
  5
52
330
51
100
AcDbEntity
  8
______
  0
SPLINE
  5
55
330
1F
100
AcDbEntity
  8
MAKE2D VISIBLE LINES
100
AcDbSpline
210
0.0
220
0.0
230
1.0
 70
    15
 71
     2
 72
    12
 73
     9
 74
     0
 42
0.0000000001
 43
0.0000000001
 40
0.0
 40
0.0
 40
0.0
 40
2.356194490192357
 40
2.356194490192357
 40
4.712388980384708
 40
4.712388980384708
 40
7.068583470577064
 40
7.068583470577064
 40
9.424777960769418
 40
9.424777960769418
 40
9.424777960769418
 10
108.5
 20
48.0
 30
0.0
 41
1.0
 10
108.5
 20
46.49999999999997
 30
0.0
 41
0.7071067811865341
 10
110.0
 20
46.5
 30
0.0
 41
1.0
 10
111.5
 20
46.49999999999999
 30
0.0
 41
0.7071067811865408
 10
111.5
 20
48.0
 30
0.0
 41
1.0
 10
111.5
 20
49.50000000000002
 30
0.0
 41
0.7071067811865426
 10
110.0
 20
49.5
 30
0.0
 41
1.0
 10
108.5
 20
49.50000000000001
 30
0.0
 41
0.7071067811865375
 10
108.5
 20
48.0
 30
0.0
 41
1.0
  0
SPLINE
  5
56
330
1F
100
AcDbEntity
  8
MAKE2D VISIBLE LINES
100
AcDbSpline
210
0.0
220
0.0
230
1.0
 70
    12
 71
     2
 72
     8
 73
     5
 74
     0
 42
0.0000000001
 43
0.0000000001
 40
0.0
 40
0.0
 40
0.0
 40
9.424777960769385
 40
9.424777960769385
 40
18.84955592153877
 40
18.84955592153877
 40
18.84955592153877
 10
63.0
 20
82.0
 30
0.0
 41
1.0
 10
57.0
 20
82.00000000000001
 30
0.0
 41
0.7071067811865466
 10
57.0
 20
76.0
 30
0.0
 41
1.0
 10
57.0
 20
70.00000000000001
 30
0.0
 41
0.7071067811865471
 10
63.0
 20
70.0
 30
0.0
 41
1.0
  0
SPLINE
  5
57
330
1F
100
AcDbEntity
  8
MAKE2D VISIBLE LINES
100
AcDbSpline
210
0.0
220
0.0
230
1.0
 70
    12
 71
     2
 72
     8
 73
     5
 74
     0
 42
0.0000000001
 43
0.0000000001
 40
0.0
 40
0.0
 40
0.0
 40
9.424777960769378
 40
9.424777960769378
 40
18.84955592153876
 40
18.84955592153876
 40
18.84955592153876
 10
103.0
 20
40.0
 30
0.0
 41
1.0
 10
97.0
 20
39.99999999999999
 30
0.0
 41
0.7071067811865483
 10
97.0
 20
34.0
 30
0.0
 41
1.0
 10
96.99999999999997
 20
28.0
 30
0.0
 41
0.7071067811865467
 10
103.0
 20
28.0
 30
0.0
 41
1.0
  0
SPLINE
  5
58
330
1F
100
AcDbEntity
  8
MAKE2D VISIBLE LINES
100
AcDbSpline
210
0.0
220
0.0
230
1.0
 70
    12
 71
     2
 72
     8
 73
     5
 74
     0
 42
0.0000000001
 43
0.0000000001
 40
0.0
 40
0.0
 40
0.0
 40
4.737388980384687
 40
4.737388980384687
 40
9.424777960769319
 40
9.424777960769319
 40
9.424777960769319
 10
115.0
 20
6.0
 30
0.0
 41
1.0
 10
115.0
 20
3.5000612951461
 30
0.0
 41
0.9230802709910678
 10
113.2249262403153
 20
1.73971852292658
 30
0.0
 41
1.0
 10
111.4706493187867
 20
0.0000000000002351
 30
0.0
 41
0.9246747841391795
 10
109.0
 20
0.0000000000000284
 30
0.0
 41
1.0
  0
SPLINE
  5
59
330
1F
100
AcDbEntity
  8
MAKE2D VISIBLE LINES
100
AcDbSpline
210
0.0
220
0.0
230
1.0
 70
    24
 71
     2
 72
     6
 73
     3
 74
     0
 42
0.0000000001
 43
0.0000000001
 40
0.0
 40
0.0
 40
0.0
 40
36.0
 40
36.0
 40
36.0
 10
151.0
 20
12.0
 30
0.0
 10
133.0
 20
12.0
 30
0.0
 10
115.0
 20
12.0
 30
0.0
  0
SPLINE
  5
5A
330
1F
100
AcDbEntity
  8
MAKE2D VISIBLE LINES
100
AcDbSpline
210
0.0
220
0.0
230
1.0
 70
    12
 71
     2
 72
     8
 73
     5
 74
     0
 42
0.0000000001
 43
0.0000000001
 40
0.0
 40
0.0
 40
0.0
 40
9.424777960769378
 40
9.424777960769378
 40
18.84955592153876
 40
18.84955592153876
 40
18.84955592153876
 10
103.0
 20
26.0
 30
0.0
 41
1.0
 10
97.0
 20
25.99999999999999
 30
0.0
 41
0.7071067811865483
 10
97.0
 20
20.0
 30
0.0
 41
1.0
 10
96.99999999999997
 20
14.0
 30
0.0
 41
0.7071067811865467
 10
103.0
 20
14.0
 30
0.0
 41
1.0
  0
ARC
  5
5B
330
1F
100
AcDbEntity
  8
______
100
AcDbCircle
 10
157.0
 20
48.0
 30
0.0
 40
5.998519722996552
100
AcDbArc
 50
180.0041707630387
 51
270.0
  0
POLYLINE
  5
5C
330
1F
100
AcDbEntity
  8
______
100
AcDb2dPolyline
 66
     1
 10
0.0
 20
0.0
 30
0.0
  0
VERTEX
  5
5E
330
5C
100
AcDbEntity
  8
______
100
AcDbVertex
100
AcDb2dVertex
 10
151.0014802928962
 20
47.99956334647093
 30
0.0
  0
VERTEX
  5
5F
330
5C
100
AcDbEntity
  8
______
100
AcDbVertex
100
AcDb2dVertex
 10
151.0014802928962
 20
54.0
 30
0.0
  0
VERTEX
  5
60
330
5C
100
AcDbEntity
  8
______
100
AcDbVertex
100
AcDb2dVertex
 10
63.0
 20
54.0
 30
0.0
  0
SEQEND
  5
5D
330
5C
100
AcDbEntity
  8
______
  0
SPLINE
  5
61
330
1F
100
AcDbEntity
  8
MAKE2D VISIBLE LINES
100
AcDbSpline
210
0.0
220
0.0
230
1.0
 70
    15
 71
     2
 72
    12
 73
     9
 74
     0
 42
0.0000000001
 43
0.0000000001
 40
0.0
 40
0.0
 40
0.0
 40
2.356194490192344
 40
2.356194490192344
 40
4.71238898038469
 40
4.71238898038469
 40
7.068583470577034
 40
7.068583470577034
 40
9.424777960769381
 40
9.424777960769381
 40
9.424777960769381
 10
64.5
 20
76.0
 30
0.0
 41
1.0
 10
64.49999999999999
 20
74.5
 30
0.0
 41
0.7071067811865474
 10
63.0
 20
74.5
 30
0.0
 41
1.0
 10
61.5
 20
74.50000000000001
 30
0.0
 41
0.7071067811865502
 10
61.5
 20
76.0
 30
0.0
 41
1.0
 10
61.49999999999998
 20
77.50000000000001
 30
0.0
 41
0.7071067811865474
 10
63.0
 20
77.5
 30
0.0
 41
1.0
 10
64.5
 20
77.50000000000001
 30
0.0
 41
0.7071067811865496
 10
64.5
 20
76.0
 30
0.0
 41
1.0
  0
SPLINE
  5
62
330
1F
100
AcDbEntity
  8
MAKE2D VISIBLE LINES
100
AcDbSpline
210
0.0
220
0.0
230
1.0
 70
    24
 71
     2
 72
     6
 73
     3
 74
     0
 42
0.0000000001
 43
0.0000000001
 40
0.0
 40
0.0
 40
0.0
 40
48.0
 40
48.0
 40
48.0
 10
103.0
 20
28.0
 30
0.0
 10
127.0
 20
28.0
 30
0.0
 10
151.0
 20
28.0
 30
0.0
  0
POLYLINE
  5
63
330
1F
100
AcDbEntity
  8
______
100
AcDb2dPolyline
 66
     1
 10
0.0
 20
0.0
 30
0.0
  0
VERTEX
  5
65
330
63
100
AcDbEntity
  8
______
100
AcDbVertex
100
AcDb2dVertex
 10
62.73265130121196
 20
42.00595923660373
 30
0.0
  0
VERTEX
  5
66
330
63
100
AcDbEntity
  8
______
100
AcDbVertex
100
AcDb2dVertex
 10
157.0
 20
42.00148027700344
 30
0.0
  0
SEQEND
  5
64
330
63
100
AcDbEntity
  8
______
  0
POLYLINE
  5
67
330
1F
100
AcDbEntity
  8
______
100
AcDb2dPolyline
 66
     1
 10
0.0
 20
0.0
 30
0.0
  0
VERTEX
  5
69
330
67
100
AcDbEntity
  8
______
100
AcDbVertex
100
AcDb2dVertex
 10
157.0
 20
70.00000000000001
 30
0.0
  0
VERTEX
  5
6A
330
67
100
AcDbEntity
  8
______
100
AcDbVertex
100
AcDb2dVertex
 10
63.0
 20
70.0
 30
0.0
  0
SEQEND
  5
68
330
67
100
AcDbEntity
  8
______
  0
SPLINE
  5
6B
330
1F
100
AcDbEntity
  8
MAKE2D VISIBLE LINES
100
AcDbSpline
210
0.0
220
0.0
230
1.0
 70
    12
 71
     2
 72
     8
 73
     5
 74
     0
 42
0.0000000001
 43
0.0000000001
 40
0.0
 40
0.0
 40
0.0
 40
9.42477796076936
 40
9.42477796076936
 40
18.84955592153872
 40
18.84955592153872
 40
18.84955592153872
 10
157.0
 20
82.0
 30
0.0
 41
1.0
 10
151.0000000000001
 20
81.99999999999997
 30
0.0
 41
0.7071067811865523
 10
151.0
 20
76.0
 30
0.0
 41
1.0
 10
151.0
 20
70.00000000000003
 30
0.0
 41
0.7071067811865513
 10
157.0
 20
70.00000000000001
 30
0.0
 41
1.0
  0
POLYLINE
  5
6C
330
1F
100
AcDbEntity
  8
______
100
AcDb2dPolyline
 66
     1
 10
0.0
 20
0.0
 30
0.0
  0
VERTEX
  5
6E
330
6C
100
AcDbEntity
  8
______
100
AcDbVertex
100
AcDb2dVertex
 10
63.0
 20
82.0
 30
0.0
  0
VERTEX
  5
6F
330
6C
100
AcDbEntity
  8
______
100
AcDbVertex
100
AcDb2dVertex
 10
157.0
 20
81.99999999999997
 30
0.0
  0
SEQEND
  5
6D
330
6C
100
AcDbEntity
  8
______
  0
SPLINE
  5
70
330
1F
100
AcDbEntity
  8
MAKE2D VISIBLE LINES
100
AcDbSpline
210
0.0
220
0.0
230
1.0
 70
    15
 71
     2
 72
    12
 73
     9
 74
     0
 42
0.0000000001
 43
0.0000000001
 40
0.0
 40
0.0
 40
0.0
 40
2.35619449019234
 40
2.35619449019234
 40
4.712388980384675
 40
4.712388980384675
 40
7.068583470577018
 40
7.068583470577018
 40
9.424777960769362
 40
9.424777960769362
 40
9.424777960769362
 10
101.5
 20
34.0
 30
0.0
 41
1.0
 10
101.5
 20
35.49999999999996
 30
0.0
 41
0.7071067811865592
 10
103.0
 20
35.5
 30
0.0
 41
1.0
 10
104.5
 20
35.49999999999999
 30
0.0
 41
0.7071067811865576
 10
104.5
 20
34.0
 30
0.0
 41
1.0
 10
104.5
 20
32.50000000000001
 30
0.0
 41
0.7071067811865508
 10
103.0
 20
32.5
 30
0.0
 41
1.0
 10
101.5
 20
32.5
 30
0.0
 41
0.7071067811865476
 10
101.5
 20
34.0
 30
0.0
 41
1.0
  0
POLYLINE
  5
71
330
1F
100
AcDbEntity
  8
______
100
AcDb2dPolyline
 66
     1
 10
0.0
 20
0.0
 30
0.0
  0
VERTEX
  5
73
330
71
100
AcDbEntity
  8
______
100
AcDbVertex
100
AcDb2dVertex
 10
157.0
 20
0.0000000000000284
 30
0.0
  0
VERTEX
  5
74
330
71
100
AcDbEntity
  8
______
100
AcDbVertex
100
AcDb2dVertex
 10
109.0
 20
0.0000000000000284
 30
0.0
  0
SEQEND
  5
72
330
71
100
AcDbEntity
  8
______
  0
SPLINE
  5
75
330
1F
100
AcDbEntity
  8
MAKE2D VISIBLE LINES
100
AcDbSpline
210
0.0
220
0.0
230
1.0
 70
    15
 71
     2
 72
    12
 73
     9
 74
     0
 42
0.0000000001
 43
0.0000000001
 40
0.0
 40
0.0
 40
0.0
 40
2.356194490192348
 40
2.356194490192348
 40
4.712388980384687
 40
4.712388980384687
 40
7.068583470577043
 40
7.068583470577043
 40
9.424777960769388
 40
9.424777960769388
 40
9.424777960769388
 10
149.5
 20
34.0
 30
0.0
 41
1.0
 10
149.5
 20
35.49999999999999
 30
0.0
 41
0.7071067811865486
 10
151.0
 20
35.5
 30
0.0
 41
1.0
 10
152.5
 20
35.49999999999999
 30
0.0
 41
0.7071067811865515
 10
152.5
 20
34.0
 30
0.0
 41
1.0
 10
152.5
 20
32.49999999999998
 30
0.0
 41
0.7071067811865427
 10
151.0
 20
32.5
 30
0.0
 41
1.0
 10
149.5
 20
32.5
 30
0.0
 41
0.7071067811865474
 10
149.5
 20
34.0
 30
0.0
 41
1.0
  0
SPLINE
  5
76
330
1F
100
AcDbEntity
  8
MAKE2D VISIBLE LINES
100
AcDbSpline
210
0.0
220
0.0
230
1.0
 70
    15
 71
     2
 72
    12
 73
     9
 74
     0
 42
0.0000000001
 43
0.0000000001
 40
0.0
 40
0.0
 40
0.0
 40
2.356194490192338
 40
2.356194490192338
 40
4.712388980384677
 40
4.712388980384677
 40
7.068583470577016
 40
7.068583470577016
 40
9.424777960769365
 40
9.424777960769365
 40
9.424777960769365
 10
111.5
 20
76.0
 30
0.0
 41
1.0
 10
111.5
 20
74.5
 30
0.0
 41
0.7071067811865492
 10
110.0
 20
74.5
 30
0.0
 41
1.0
 10
108.5
 20
74.50000000000001
 30
0.0
 41
0.7071067811865542
 10
108.5
 20
76.0
 30
0.0
 41
1.0
 10
108.5
 20
77.49999999999999
 30
0.0
 41
0.7071067811865542
 10
110.0
 20
77.5
 30
0.0
 41
1.0
 10
111.5
 20
77.50000000000001
 30
0.0
 41
0.707106781186545
 10
111.5
 20
76.0
 30
0.0
 41
1.0
  0
SPLINE
  5
77
330
1F
100
AcDbEntity
  8
MAKE2D VISIBLE LINES
100
AcDbSpline
210
0.0
220
0.0
230
1.0
 70
    12
 71
     2
 72
     8
 73
     5
 74
     0
 42
0.0000000001
 43
0.0000000001
 40
0.0
 40
0.0
 40
0.0
 40
9.424777960769372
 40
9.424777960769372
 40
18.84955592153875
 40
18.84955592153875
 40
18.84955592153875
 10
151.0
 20
40.0
 30
0.0
 41
1.0
 10
157.0
 20
39.99999999999999
 30
0.0
 41
0.7071067811865492
 10
157.0
 20
34.0
 30
0.0
 41
1.0
 10
157.0
 20
28.00000000000001
 30
0.0
 41
0.7071067811865476
 10
151.0
 20
28.0
 30
0.0
 41
1.0
  0
SPLINE
  5
78
330
1F
100
AcDbEntity
  8
MAKE2D VISIBLE LINES
100
AcDbSpline
210
0.0
220
0.0
230
1.0
 70
    24
 71
     2
 72
     6
 73
     3
 74
     0
 42
0.0000000001
 43
0.0000000001
 40
0.0
 40
0.0
 40
0.0
 40
48.0
 40
48.0
 40
48.0
 10
151.0
 20
40.0
 30
0.0
 10
127.0
 20
40.0
 30
0.0
 10
103.0
 20
40.0
 30
0.0
  0
SPLINE
  5
79
330
1F
100
AcDbEntity
  8
MAKE2D VISIBLE LINES
100
AcDbSpline
210
0.0
220
0.0
230
1.0
 70
    24
 71
     2
 72
     6
 73
     3
 74
     0
 42
0.0000000001
 43
0.0000000001
 40
0.0
 40
0.0
 40
0.0
 40
48.0
 40
48.0
 40
48.0
 10
151.0
 20
26.0
 30
0.0
 10
127.0
 20
26.0
 30
0.0
 10
103.0
 20
26.0
 30
0.0
  0
SPLINE
  5
7A
330
1F
100
AcDbEntity
  8
MAKE2D VISIBLE LINES
100
AcDbSpline
210
0.0
220
0.0
230
1.0
 70
    12
 71
     2
 72
     8
 73
     5
 74
     0
 42
0.0000000001
 43
0.0000000001
 40
0.0
 40
0.0
 40
0.0
 40
9.424777960769394
 40
9.424777960769394
 40
18.58211867678576
 40
18.58211867678576
 40
18.58211867678576
 10
62.73265130121196
 20
42.00595923660373
 30
0.0
 41
1.0
 10
68.73265130121197
 20
42.00595923660371
 30
0.0
 41
0.7071067811865467
 10
68.73265130121197
 20
48.00595923660373
 30
0.0
 41
1.0
 10
68.73265130121194
 20
53.74430990270474
 30
0.0
 41
0.7226887699641773
 10
63.0
 20
54.0
 30
0.0
 41
1.0
  0
SPLINE
  5
7B
330
1F
100
AcDbEntity
  8
MAKE2D VISIBLE LINES
100
AcDbSpline
210
0.0
220
0.0
230
1.0
 70
    12
 71
     2
 72
     8
 73
     5
 74
     0
 42
0.0000000001
 43
0.0000000001
 40
0.0
 40
0.0
 40
0.0
 40
4.737388980384682
 40
4.737388980384682
 40
9.424777960769344
 40
9.424777960769344
 40
9.424777960769344
 10
151.0
 20
6.0
 30
0.0
 41
1.0
 10
151.0
 20
3.500061295146082
 30
0.0
 41
0.923080270991069
 10
152.7750737596847
 20
1.73971852292658
 30
0.0
 41
1.0
 10
154.5293506812133
 20
0.0000000000001455
 30
0.0
 41
0.9246747841391729
 10
157.0
 20
0.0000000000000284
 30
0.0
 41
1.0
  0
POLYLINE
  5
7C
330
1F
100
AcDbEntity
  8
______
100
AcDb2dPolyline
 66
     1
 10
0.0
 20
0.0
 30
0.0
  0
VERTEX
  5
7E
330
7C
100
AcDbEntity
  8
______
100
AcDbVertex
100
AcDb2dVertex
 10
99.99999999999997
 20
25.99999999999999
 30
0.0
  0
VERTEX
  5
7F
330
7C
100
AcDbEntity
  8
______
100
AcDbVertex
100
AcDb2dVertex
 10
5.999999999999972
 20
25.99999999999999
 30
0.0
  0
SEQEND
  5
7D
330
7C
100
AcDbEntity
  8
______
  0
POLYLINE
  5
80
330
1F
100
AcDbEntity
  8
______
100
AcDb2dPolyline
 66
     1
 10
0.0
 20
0.0
 30
0.0
  0
VERTEX
  5
82
330
80
100
AcDbEntity
  8
______
100
AcDbVertex
100
AcDb2dVertex
 10
5.999999999999972
 20
13.99999999999999
 30
0.0
  0
VERTEX
  5
83
330
80
100
AcDbEntity
  8
______
100
AcDbVertex
100
AcDb2dVertex
 10
93.99999999999997
 20
13.99999999999999
 30
0.0
  0
VERTEX
  5
84
330
80
100
AcDbEntity
  8
______
100
AcDbVertex
100
AcDb2dVertex
 10
93.99999999999997
 20
19.99999999999999
 30
0.0
  0
SEQEND
  5
81
330
80
100
AcDbEntity
  8
______
  0
SPLINE
  5
85
330
1F
100
AcDbEntity
  8
MAKE2D VISIBLE LINES
100
AcDbSpline
210
0.0
220
0.0
230
1.0
 70
    15
 71
     2
 72
    12
 73
     9
 74
     0
 42
0.0000000001
 43
0.0000000001
 40
0.0
 40
0.0
 40
0.0
 40
2.356194490192357
 40
2.356194490192357
 40
4.712388980384708
 40
4.712388980384708
 40
7.068583470577064
 40
7.068583470577064
 40
9.424777960769418
 40
9.424777960769418
 40
9.424777960769418
 10
51.49999999999999
 20
19.99999999999999
 30
0.0
 41
1.0
 10
51.49999999999997
 20
21.50000000000002
 30
0.0
 41
0.7071067811865341
 10
52.99999999999999
 20
21.49999999999999
 30
0.0
 41
1.0
 10
54.50000000000001
 20
21.5
 30
0.0
 41
0.7071067811865408
 10
54.49999999999999
 20
19.99999999999999
 30
0.0
 41
1.0
 10
54.49999999999999
 20
18.49999999999996
 30
0.0
 41
0.7071067811865426
 10
52.99999999999999
 20
18.49999999999999
 30
0.0
 41
1.0
 10
51.49999999999997
 20
18.49999999999998
 30
0.0
 41
0.7071067811865375
 10
51.49999999999999
 20
19.99999999999999
 30
0.0
 41
1.0
  0
ARC
  5
86
330
1F
100
AcDbEntity
  8
______
100
AcDbCircle
 10
5.999999999999972
 20
19.99999999999999
 30
0.0
 40
6.0
100
AcDbArc
 50
90.0
 51
270.0
  0
ARC
  5
87
330
1F
100
AcDbEntity
  8
______
100
AcDbCircle
 10
99.99999999999997
 20
19.99999999999999
 30
0.0
 40
6.0
100
AcDbArc
 50
90.0
 51
180.0
  0
SPLINE
  5
88
330
1F
100
AcDbEntity
  8
MAKE2D VISIBLE LINES
100
AcDbSpline
210
0.0
220
0.0
230
1.0
 70
    12
 71
     2
 72
     8
 73
     5
 74
     0
 42
0.0000000001
 43
0.0000000001
 40
0.0
 40
0.0
 40
0.0
 40
4.737388980384682
 40
4.737388980384682
 40
9.424777960769344
 40
9.424777960769344
 40
9.424777960769344
 10
6.0
 20
76.0
 30
0.0
 41
1.0
 10
6.000000000000004
 20
78.49993870485392
 30
0.0
 41
0.923080270991069
 10
4.224926240315341
 20
80.26028147707342
 30
0.0
 41
1.0
 10
2.470649318786702
 20
81.99999999999986
 30
0.0
 41
0.9246747841391729
 10
-0.0000000000000142
 20
81.99999999999997
 30
0.0
 41
1.0
  0
POLYLINE
  5
89
330
1F
100
AcDbEntity
  8
______
100
AcDb2dPolyline
 66
     1
 10
0.0
 20
0.0
 30
0.0
  0
VERTEX
  5
8B
330
89
100
AcDbEntity
  8
______
100
AcDbVertex
100
AcDb2dVertex
 10
-0.0000000000000142
 20
81.99999999999997
 30
0.0
  0
VERTEX
  5
8C
330
89
100
AcDbEntity
  8
______
100
AcDbVertex
100
AcDb2dVertex
 10
48.0
 20
81.99999999999997
 30
0.0
  0
SEQEND
  5
8A
330
89
100
AcDbEntity
  8
______
  0
SPLINE
  5
8D
330
1F
100
AcDbEntity
  8
MAKE2D VISIBLE LINES
100
AcDbSpline
210
0.0
220
0.0
230
1.0
 70
    12
 71
     2
 72
     8
 73
     5
 74
     0
 42
0.0000000001
 43
0.0000000001
 40
0.0
 40
0.0
 40
0.0
 40
4.737388980384687
 40
4.737388980384687
 40
9.424777960769319
 40
9.424777960769319
 40
9.424777960769319
 10
42.0
 20
76.0
 30
0.0
 41
1.0
 10
42.0
 20
78.49993870485389
 30
0.0
 41
0.9230802709910678
 10
43.77507375968467
 20
80.26028147707342
 30
0.0
 41
1.0
 10
45.52935068121329
 20
81.99999999999976
 30
0.0
 41
0.9246747841391795
 10
48.0
 20
81.99999999999997
 30
0.0
 41
1.0
  0
POLYLINE
  5
8E
330
1F
100
AcDbEntity
  8
______
100
AcDb2dPolyline
 66
     1
 10
0.0
 20
0.0
 30
0.0
  0
VERTEX
  5
90
330
8E
100
AcDbEntity
  8
______
100
AcDbVertex
100
AcDb2dVertex
 10
6.0
 20
76.0
 30
0.0
  0
VERTEX
  5
91
330
8E
100
AcDbEntity
  8
______
100
AcDbVertex
100
AcDb2dVertex
 10
6.0
 20
70.0
 30
0.0
  0
SEQEND
  5
8F
330
8E
100
AcDbEntity
  8
______
  0
SPLINE
  5
92
330
1F
100
AcDbEntity
  8
MAKE2D VISIBLE LINES
100
AcDbSpline
210
0.0
220
0.0
230
1.0
 70
    24
 71
     2
 72
     6
 73
     3
 74
     0
 42
0.0000000001
 43
0.0000000001
 40
0.0
 40
0.0
 40
0.0
 40
36.0
 40
36.0
 40
36.0
 10
6.0
 20
70.0
 30
0.0
 10
24.0
 20
70.0
 30
0.0
 10
42.0
 20
70.0
 30
0.0
  0
POLYLINE
  5
93
330
1F
100
AcDbEntity
  8
______
100
AcDb2dPolyline
 66
     1
 10
0.0
 20
0.0
 30
0.0
  0
VERTEX
  5
95
330
93
100
AcDbEntity
  8
______
100
AcDbVertex
100
AcDb2dVertex
 10
42.0
 20
76.0
 30
0.0
  0
VERTEX
  5
96
330
93
100
AcDbEntity
  8
______
100
AcDbVertex
100
AcDb2dVertex
 10
42.0
 20
70.0
 30
0.0
  0
SEQEND
  5
94
330
93
100
AcDbEntity
  8
______
  0
ARC
  5
97
330
1F
100
AcDbEntity
  8
______
100
AcDbCircle
 10
0.0
 20
34.0
 30
0.0
 40
5.998519722996552
100
AcDbArc
 50
0.0041707630386654
 51
90.0
  0
SPLINE
  5
98
330
1F
100
AcDbEntity
  8
MAKE2D VISIBLE LINES
100
AcDbSpline
210
0.0
220
0.0
230
1.0
 70
    12
 71
     2
 72
     8
 73
     5
 74
     0
 42
0.0000000001
 43
0.0000000001
 40
0.0
 40
0.0
 40
0.0
 40
9.424777960769378
 40
9.424777960769378
 40
18.84955592153876
 40
18.84955592153876
 40
18.84955592153876
 10
54.0
 20
56.0
 30
0.0
 41
1.0
 10
59.99999999999999
 20
56.00000000000001
 30
0.0
 41
0.7071067811865483
 10
60.0
 20
62.0
 30
0.0
 41
1.0
 10
60.00000000000002
 20
68.0
 30
0.0
 41
0.7071067811865467
 10
54.0
 20
68.0
 30
0.0
 41
1.0
  0
SPLINE
  5
99
330
1F
100
AcDbEntity
  8
MAKE2D VISIBLE LINES
100
AcDbSpline
210
0.0
220
0.0
230
1.0
 70
    12
 71
     2
 72
     8
 73
     5
 74
     0
 42
0.0000000001
 43
0.0000000001
 40
0.0
 40
0.0
 40
0.0
 40
9.424777960769372
 40
9.424777960769372
 40
18.84955592153875
 40
18.84955592153875
 40
18.84955592153875
 10
6.0
 20
56.0
 30
0.0
 41
1.0
 10
0.000000000000017
 20
56.00000000000001
 30
0.0
 41
0.7071067811865492
 10
0.0
 20
62.0
 30
0.0
 41
1.0
 10
0.0000000000000038
 20
67.99999999999999
 30
0.0
 41
0.7071067811865476
 10
6.0
 20
68.0
 30
0.0
 41
1.0
  0
SPLINE
  5
9A
330
1F
100
AcDbEntity
  8
MAKE2D VISIBLE LINES
100
AcDbSpline
210
0.0
220
0.0
230
1.0
 70
    24
 71
     2
 72
     6
 73
     3
 74
     0
 42
0.0000000001
 43
0.0000000001
 40
0.0
 40
0.0
 40
0.0
 40
48.0
 40
48.0
 40
48.0
 10
54.0
 20
68.0
 30
0.0
 10
30.0
 20
68.0
 30
0.0
 10
6.0
 20
68.0
 30
0.0
  0
SPLINE
  5
9B
330
1F
100
AcDbEntity
  8
MAKE2D VISIBLE LINES
100
AcDbSpline
210
0.0
220
0.0
230
1.0
 70
    15
 71
     2
 72
    12
 73
     9
 74
     0
 42
0.0000000001
 43
0.0000000001
 40
0.0
 40
0.0
 40
0.0
 40
2.356194490192341
 40
2.356194490192341
 40
4.712388980384681
 40
4.712388980384681
 40
7.068583470577027
 40
7.068583470577027
 40
9.424777960769372
 40
9.424777960769372
 40
9.424777960769372
 10
7.5
 20
62.0
 30
0.0
 41
1.0
 10
7.499999999999995
 20
60.49999999999999
 30
0.0
 41
0.7071067811865507
 10
6.0
 20
60.5
 30
0.0
 41
1.0
 10
4.500000000000017
 20
60.50000000000001
 30
0.0
 41
0.707106781186554
 10
4.5
 20
62.0
 30
0.0
 41
1.0
 10
4.500000000000001
 20
63.50000000000001
 30
0.0
 41
0.7071067811865479
 10
6.0
 20
63.5
 30
0.0
 41
1.0
 10
7.499999999999996
 20
63.49999999999999
 30
0.0
 41
0.70710678118655
 10
7.500000000000007
 20
62.0
 30
0.0
 41
1.0
  0
SPLINE
  5
9C
330
1F
100
AcDbEntity
  8
MAKE2D VISIBLE LINES
100
AcDbSpline
210
0.0
220
0.0
230
1.0
 70
    15
 71
     2
 72
    12
 73
     9
 74
     0
 42
0.0000000001
 43
0.0000000001
 40
0.0
 40
0.0
 40
0.0
 40
2.356194490192339
 40
2.356194490192339
 40
4.712388980384678
 40
4.712388980384678
 40
7.068583470577016
 40
7.068583470577016
 40
9.424777960769362
 40
9.424777960769362
 40
9.424777960769362
 10
55.5
 20
62.0
 30
0.0
 41
1.0
 10
55.5
 20
60.50000000000001
 30
0.0
 41
0.7071067811865542
 10
54.0
 20
60.5
 30
0.0
 41
1.0
 10
52.50000000000003
 20
60.49999999999999
 30
0.0
 41
0.7071067811865542
 10
52.5
 20
62.0
 30
0.0
 41
1.0
 10
52.50000000000001
 20
63.49999999999999
 30
0.0
 41
0.7071067811865492
 10
54.0
 20
63.5
 30
0.0
 41
1.0
 10
55.50000000000001
 20
63.50000000000001
 30
0.0
 41
0.7071067811865476
 10
55.5
 20
62.0
 30
0.0
 41
1.0
  0
SPLINE
  5
9D
330
1F
100
AcDbEntity
  8
MAKE2D VISIBLE LINES
100
AcDbSpline
210
0.0
220
0.0
230
1.0
 70
    12
 71
     2
 72
     8
 73
     5
 74
     0
 42
0.0000000001
 43
0.0000000001
 40
0.0
 40
0.0
 40
0.0
 40
9.424777960769378
 40
9.424777960769378
 40
18.84955592153876
 40
18.84955592153876
 40
18.84955592153876
 10
54.0
 20
42.0
 30
0.0
 41
1.0
 10
59.99999999999999
 20
42.00000000000001
 30
0.0
 41
0.7071067811865483
 10
60.0
 20
48.0
 30
0.0
 41
1.0
 10
60.00000000000002
 20
54.0
 30
0.0
 41
0.7071067811865467
 10
54.0
 20
54.0
 30
0.0
 41
1.0
  0
SPLINE
  5
9E
330
1F
100
AcDbEntity
  8
MAKE2D VISIBLE LINES
100
AcDbSpline
210
0.0
220
0.0
230
1.0
 70
    24
 71
     2
 72
     6
 73
     3
 74
     0
 42
0.0000000001
 43
0.0000000001
 40
0.0
 40
0.0
 40
0.0
 40
48.0
 40
48.0
 40
48.0
 10
54.0
 20
54.0
 30
0.0
 10
30.0
 20
54.0
 30
0.0
 10
6.0
 20
54.0
 30
0.0
  0
SPLINE
  5
9F
330
1F
100
AcDbEntity
  8
MAKE2D VISIBLE LINES
100
AcDbSpline
210
0.0
220
0.0
230
1.0
 70
    15
 71
     2
 72
    12
 73
     9
 74
     0
 42
0.0000000001
 43
0.0000000001
 40
0.0
 40
0.0
 40
0.0
 40
2.35619449019234
 40
2.35619449019234
 40
4.712388980384675
 40
4.712388980384675
 40
7.068583470577018
 40
7.068583470577018
 40
9.424777960769362
 40
9.424777960769362
 40
9.424777960769362
 10
55.5
 20
48.0
 30
0.0
 41
1.0
 10
55.49999999999999
 20
46.50000000000004
 30
0.0
 41
0.7071067811865592
 10
54.0
 20
46.5
 30
0.0
 41
1.0
 10
52.50000000000003
 20
46.50000000000001
 30
0.0
 41
0.7071067811865576
 10
52.5
 20
48.0
 30
0.0
 41
1.0
 10
52.50000000000002
 20
49.49999999999999
 30
0.0
 41
0.7071067811865508
 10
54.0
 20
49.5
 30
0.0
 41
1.0
 10
55.50000000000001
 20
49.49999999999999
 30
0.0
 41
0.7071067811865476
 10
55.5
 20
48.0
 30
0.0
 41
1.0
  0
SPLINE
  5
A0
330
1F
100
AcDbEntity
  8
MAKE2D VISIBLE LINES
100
AcDbSpline
210
0.0
220
0.0
230
1.0
 70
    15
 71
     2
 72
    12
 73
     9
 74
     0
 42
0.0000000001
 43
0.0000000001
 40
0.0
 40
0.0
 40
0.0
 40
2.356194490192348
 40
2.356194490192348
 40
4.712388980384687
 40
4.712388980384687
 40
7.068583470577043
 40
7.068583470577043
 40
9.424777960769388
 40
9.424777960769388
 40
9.424777960769388
 10
7.5
 20
48.0
 30
0.0
 41
1.0
 10
7.499999999999998
 20
46.50000000000001
 30
0.0
 41
0.7071067811865486
 10
6.0
 20
46.5
 30
0.0
 41
1.0
 10
4.500000000000009
 20
46.50000000000001
 30
0.0
 41
0.7071067811865515
 10
4.500000000000007
 20
48.0
 30
0.0
 41
1.0
 10
4.499999999999986
 20
49.50000000000001
 30
0.0
 41
0.7071067811865427
 10
6.0
 20
49.5
 30
0.0
 41
1.0
 10
7.500000000000002
 20
49.5
 30
0.0
 41
0.7071067811865474
 10
7.5
 20
48.0
 30
0.0
 41
1.0
  0
SPLINE
  5
A1
330
1F
100
AcDbEntity
  8
MAKE2D VISIBLE LINES
100
AcDbSpline
210
0.0
220
0.0
230
1.0
 70
    24
 71
     2
 72
     6
 73
     3
 74
     0
 42
0.0000000001
 43
0.0000000001
 40
0.0
 40
0.0
 40
0.0
 40
48.0
 40
48.0
 40
48.0
 10
6.0
 20
42.0
 30
0.0
 10
30.0
 20
42.0
 30
0.0
 10
54.0
 20
42.0
 30
0.0
  0
SPLINE
  5
A2
330
1F
100
AcDbEntity
  8
MAKE2D VISIBLE LINES
100
AcDbSpline
210
0.0
220
0.0
230
1.0
 70
    12
 71
     2
 72
     8
 73
     5
 74
     0
 42
0.0000000001
 43
0.0000000001
 40
0.0
 40
0.0
 40
0.0
 40
9.424777960769372
 40
9.424777960769372
 40
18.84955592153875
 40
18.84955592153875
 40
18.84955592153875
 10
6.0
 20
42.0
 30
0.0
 41
1.0
 10
0.000000000000017
 20
42.00000000000001
 30
0.0
 41
0.7071067811865492
 10
0.0
 20
48.0
 30
0.0
 41
1.0
 10
0.0000000000000038
 20
53.99999999999999
 30
0.0
 41
0.7071067811865476
 10
6.0
 20
54.0
 30
0.0
 41
1.0
  0
SPLINE
  5
A3
330
1F
100
AcDbEntity
  8
MAKE2D VISIBLE LINES
100
AcDbSpline
210
0.0
220
0.0
230
1.0
 70
    24
 71
     2
 72
     6
 73
     3
 74
     0
 42
0.0000000001
 43
0.0000000001
 40
0.0
 40
0.0
 40
0.0
 40
48.0
 40
48.0
 40
48.0
 10
6.0
 20
56.0
 30
0.0
 10
30.0
 20
56.0
 30
0.0
 10
54.0
 20
56.0
 30
0.0
  0
SPLINE
  5
A4
330
1F
100
AcDbEntity
  8
MAKE2D VISIBLE LINES
100
AcDbSpline
210
0.0
220
0.0
230
1.0
 70
    12
 71
     2
 72
     8
 73
     5
 74
     0
 42
0.0000000001
 43
0.0000000001
 40
0.0
 40
0.0
 40
0.0
 40
9.424777960769394
 40
9.424777960769394
 40
18.58211867678576
 40
18.58211867678576
 40
18.58211867678576
 10
94.26734869878804
 20
39.99404076339627
 30
0.0
 41
1.0
 10
88.26734869878803
 20
39.99404076339629
 30
0.0
 41
0.7071067811865467
 10
88.26734869878803
 20
33.99404076339627
 30
0.0
 41
1.0
 10
88.26734869878804
 20
28.25569009729526
 30
0.0
 41
0.7226887699641773
 10
94.0
 20
28.0
 30
0.0
 41
1.0
  0
SPLINE
  5
A5
330
1F
100
AcDbEntity
  8
MAKE2D VISIBLE LINES
100
AcDbSpline
210
0.0
220
0.0
230
1.0
 70
    15
 71
     2
 72
    12
 73
     9
 74
     0
 42
0.0000000001
 43
0.0000000001
 40
0.0
 40
0.0
 40
0.0
 40
2.356194490192357
 40
2.356194490192357
 40
4.712388980384708
 40
4.712388980384708
 40
7.068583470577064
 40
7.068583470577064
 40
9.424777960769418
 40
9.424777960769418
 40
9.424777960769418
 10
48.5
 20
34.0
 30
0.0
 41
1.0
 10
48.50000000000002
 20
35.50000000000003
 30
0.0
 41
0.7071067811865341
 10
47.0
 20
35.5
 30
0.0
 41
1.0
 10
45.49999999999998
 20
35.50000000000001
 30
0.0
 41
0.7071067811865408
 10
45.5
 20
34.0
 30
0.0
 41
1.0
 10
45.5
 20
32.49999999999997
 30
0.0
 41
0.7071067811865426
 10
47.0
 20
32.5
 30
0.0
 41
1.0
 10
48.50000000000003
 20
32.49999999999998
 30
0.0
 41
0.7071067811865375
 10
48.5
 20
34.0
 30
0.0
 41
1.0
  0
POLYLINE
  5
A6
330
1F
100
AcDbEntity
  8
______
100
AcDb2dPolyline
 66
     1
 10
0.0
 20
0.0
 30
0.0
  0
VERTEX
  5
A8
330
A6
100
AcDbEntity
  8
______
100
AcDbVertex
100
AcDb2dVertex
 10
94.26734869878804
 20
39.99404076339627
 30
0.0
  0
VERTEX
  5
A9
330
A6
100
AcDbEntity
  8
______
100
AcDbVertex
100
AcDb2dVertex
 10
0.0000000000000006
 20
39.99851972299656
 30
0.0
  0
SEQEND
  5
A7
330
A6
100
AcDbEntity
  8
______
  0
POLYLINE
  5
AA
330
1F
100
AcDbEntity
  8
______
100
AcDb2dPolyline
 66
     1
 10
0.0
 20
0.0
 30
0.0
  0
VERTEX
  5
AC
330
AA
100
AcDbEntity
  8
______
100
AcDbVertex
100
AcDb2dVertex
 10
5.998519707103773
 20
34.00043665352907
 30
0.0
  0
VERTEX
  5
AD
330
AA
100
AcDbEntity
  8
______
100
AcDbVertex
100
AcDb2dVertex
 10
5.998519707103773
 20
28.0
 30
0.0
  0
VERTEX
  5
AE
330
AA
100
AcDbEntity
  8
______
100
AcDbVertex
100
AcDb2dVertex
 10
94.0
 20
28.0
 30
0.0
  0
SEQEND
  5
AB
330
AA
100
AcDbEntity
  8
______
  0
SPLINE
  5
AF
330
1F
100
AcDbEntity
  8
MAKE2D VISIBLE LINES
100
AcDbSpline
210
0.0
220
0.0
230
1.0
 70
    15
 71
     2
 72
    12
 73
     9
 74
     0
 42
0.0000000001
 43
0.0000000001
 40
0.0
 40
0.0
 40
0.0
 40
2.356194490192338
 40
2.356194490192338
 40
4.712388980384677
 40
4.712388980384677
 40
7.068583470577016
 40
7.068583470577016
 40
9.424777960769365
 40
9.424777960769365
 40
9.424777960769365
 10
45.5
 20
6.0
 30
0.0
 41
1.0
 10
45.50000000000003
 20
7.500000000000001
 30
0.0
 41
0.7071067811865492
 10
47.0
 20
7.5
 30
0.0
 41
1.0
 10
48.49999999999998
 20
7.499999999999984
 30
0.0
 41
0.7071067811865542
 10
48.5
 20
6.0
 30
0.0
 41
1.0
 10
48.49999999999999
 20
4.500000000000011
 30
0.0
 41
0.7071067811865542
 10
47.0
 20
4.5
 30
0.0
 41
1.0
 10
45.49999999999999
 20
4.499999999999986
 30
0.0
 41
0.707106781186545
 10
45.5
 20
6.0
 30
0.0
 41
1.0
  0
POLYLINE
  5
B0
330
1F
100
AcDbEntity
  8
______
100
AcDb2dPolyline
 66
     1
 10
0.0
 20
0.0
 30
0.0
  0
VERTEX
  5
B2
330
B0
100
AcDbEntity
  8
______
100
AcDbVertex
100
AcDb2dVertex
 10
0.0
 20
11.99999999999999
 30
0.0
  0
VERTEX
  5
B3
330
B0
100
AcDbEntity
  8
______
100
AcDbVertex
100
AcDb2dVertex
 10
94.0
 20
12.0
 30
0.0
  0
SEQEND
  5
B1
330
B0
100
AcDbEntity
  8
______
  0
SPLINE
  5
B4
330
1F
100
AcDbEntity
  8
MAKE2D VISIBLE LINES
100
AcDbSpline
210
0.0
220
0.0
230
1.0
 70
    15
 71
     2
 72
    12
 73
     9
 74
     0
 42
0.0000000001
 43
0.0000000001
 40
0.0
 40
0.0
 40
0.0
 40
2.356194490192344
 40
2.356194490192344
 40
4.71238898038469
 40
4.71238898038469
 40
7.068583470577034
 40
7.068583470577034
 40
9.424777960769381
 40
9.424777960769381
 40
9.424777960769381
 10
92.5
 20
6.0
 30
0.0
 41
1.0
 10
92.5
 20
7.499999999999992
 30
0.0
 41
0.7071067811865474
 10
94.0
 20
7.5
 30
0.0
 41
1.0
 10
95.5
 20
7.499999999999984
 30
0.0
 41
0.7071067811865502
 10
95.5
 20
6.0
 30
0.0
 41
1.0
 10
95.50000000000001
 20
4.499999999999984
 30
0.0
 41
0.7071067811865474
 10
94.0
 20
4.5
 30
0.0
 41
1.0
 10
92.5
 20
4.499999999999988
 30
0.0
 41
0.7071067811865496
 10
92.5
 20
6.0
 30
0.0
 41
1.0
  0
SPLINE
  5
B5
330
1F
100
AcDbEntity
  8
MAKE2D VISIBLE LINES
100
AcDbSpline
210
0.0
220
0.0
230
1.0
 70
    12
 71
     2
 72
     8
 73
     5
 74
     0
 42
0.0000000001
 43
0.0000000001
 40
0.0
 40
0.0
 40
0.0
 40
9.42477796076936
 40
9.42477796076936
 40
18.84955592153872
 40
18.84955592153872
 40
18.84955592153872
 10
0.0
 20
0.0
 30
0.0
 41
1.0
 10
5.99999999999994
 20
0.0000000000000276
 30
0.0
 41
0.7071067811865523
 10
6.0
 20
6.0
 30
0.0
 41
1.0
 10
5.999999999999965
 20
11.99999999999996
 30
0.0
 41
0.7071067811865513
 10
0.0
 20
11.99999999999999
 30
0.0
 41
1.0
  0
SPLINE
  5
B6
330
1F
100
AcDbEntity
  8
MAKE2D VISIBLE LINES
100
AcDbSpline
210
0.0
220
0.0
230
1.0
 70
    12
 71
     2
 72
     8
 73
     5
 74
     0
 42
0.0000000001
 43
0.0000000001
 40
0.0
 40
0.0
 40
0.0
 40
9.424777960769385
 40
9.424777960769385
 40
18.84955592153877
 40
18.84955592153877
 40
18.84955592153877
 10
94.0
 20
0.0
 30
0.0
 41
1.0
 10
100.0
 20
-0.0000000000000226
 30
0.0
 41
0.7071067811865466
 10
100.0
 20
6.0
 30
0.0
 41
1.0
 10
100.0
 20
11.99999999999999
 30
0.0
 41
0.7071067811865471
 10
94.0
 20
12.0
 30
0.0
 41
1.0
  0
POLYLINE
  5
B7
330
1F
100
AcDbEntity
  8
______
100
AcDb2dPolyline
 66
     1
 10
0.0
 20
0.0
 30
0.0
  0
VERTEX
  5
B9
330
B7
100
AcDbEntity
  8
______
100
AcDbVertex
100
AcDb2dVertex
 10
94.0
 20
0.0
 30
0.0
  0
VERTEX
  5
BA
330
B7
100
AcDbEntity
  8
______
100
AcDbVertex
100
AcDb2dVertex
 10
0.0000000000000142
 20
0.0000000000000284
 30
0.0
  0
SEQEND
  5
B8
330
B7
100
AcDbEntity
  8
______
  0
ENDSEC
  0
SECTION
  2
OBJECTS
  0
DICTIONARY
  5
C
330
0
100
AcDbDictionary
281
     1
  3
ACAD_GROUP
350
D
  3
ACAD_LAYOUT
350
1A
  3
ACAD_MLINESTYLE
350
17
  3
ACAD_PLOTSETTINGS
350
19
  3
ACAD_PLOTSTYLENAME
350
E
  3
ACAD_TABLESTYLE
350
BB
  3
ACAD_VISUALSTYLE
350
2A
  0
DICTIONARY
  5
D
102
{ACAD_REACTORS
330
C
102
}
330
C
100
AcDbDictionary
281
     1
  0
DICTIONARY
  5
1A
102
{ACAD_REACTORS
330
C
102
}
330
C
100
AcDbDictionary
281
     1
  3
Layout1
350
1E
  3
Layout2
350
26
  3
Model
350
22
  0
DICTIONARY
  5
17
102
{ACAD_REACTORS
330
C
102
}
330
C
100
AcDbDictionary
281
     1
  3
Standard
350
18
  0
DICTIONARY
  5
19
102
{ACAD_REACTORS
330
C
102
}
330
C
100
AcDbDictionary
281
     1
  0
ACDBDICTIONARYWDFLT
  5
E
102
{ACAD_REACTORS
330
C
102
}
330
C
100
AcDbDictionary
281
     1
  3
Normal
350
F
100
AcDbDictionaryWithDefault
340
F
  0
DICTIONARY
  5
BB
102
{ACAD_REACTORS
330
C
102
}
330
C
100
AcDbDictionary
281
     1
  0
DICTIONARY
  5
2A
102
{ACAD_REACTORS
330
C
102
}
330
C
100
AcDbDictionary
281
     1
  3
2dWireframe
350
2F
  3
3D Hidden
350
31
  3
3dWireframe
350
30
  3
Basic
350
32
  3
Brighten
350
36
  3
ColorChange
350
3A
  3
Conceptual
350
34
  3
Dim
350
35
  3
Facepattern
350
39
  3
Flat
350
2B
  3
FlatWithEdges
350
2C
  3
Gouraud
350
2D
  3
GouraudWithEdges
350
2E
  3
Linepattern
350
38
  3
Realistic
350
33
  3
Thicken
350
37
  0
LAYOUT
  5
1E
102
{ACAD_REACTORS
330
1A
102
}
330
1A
100
AcDbPlotSettings
  1

  2
none_device
  4

  6

 40
0.0
 41
0.0
 42
0.0
 43
0.0
 44
0.0
 45
0.0
 46
0.0
 47
0.0
 48
0.0
 49
0.0
140
0.0
141
0.0
142
1.0
143
1.0
 70
   688
 72
     0
 73
     0
 74
     5
  7

 75
    16
 76
     0
 77
     2
 78
   300
147
1.0
148
0.0
149
0.0
100
AcDbLayout
  1
Layout1
 70
     1
 71
     1
 10
0.0
 20
0.0
 11
12.0
 21
9.0
 12
0.0
 22
0.0
 32
0.0
 14
1.000000000000000E+20
 24
1.000000000000000E+20
 34
1.000000000000000E+20
 15
-1.000000000000000E+20
 25
-1.000000000000000E+20
 35
-1.000000000000000E+20
146
0.0
 13
0.0
 23
0.0
 33
0.0
 16
1.0
 26
0.0
 36
0.0
 17
0.0
 27
1.0
 37
0.0
 76
     0
330
1B
  0
LAYOUT
  5
26
102
{ACAD_REACTORS
330
1A
102
}
330
1A
100
AcDbPlotSettings
  1

  2
none_device
  4

  6

 40
0.0
 41
0.0
 42
0.0
 43
0.0
 44
0.0
 45
0.0
 46
0.0
 47
0.0
 48
0.0
 49
0.0
140
0.0
141
0.0
142
1.0
143
1.0
 70
   688
 72
     0
 73
     0
 74
     5
  7

 75
    16
 76
     0
 77
     2
 78
   300
147
1.0
148
0.0
149
0.0
100
AcDbLayout
  1
Layout2
 70
     1
 71
     2
 10
0.0
 20
0.0
 11
0.0
 21
0.0
 12
0.0
 22
0.0
 32
0.0
 14
0.0
 24
0.0
 34
0.0
 15
0.0
 25
0.0
 35
0.0
146
0.0
 13
0.0
 23
0.0
 33
0.0
 16
1.0
 26
0.0
 36
0.0
 17
0.0
 27
1.0
 37
0.0
 76
     0
330
23
  0
LAYOUT
  5
22
102
{ACAD_REACTORS
330
1A
102
}
330
1A
100
AcDbPlotSettings
  1

  2
none_device
  4

  6

 40
0.0
 41
0.0
 42
0.0
 43
0.0
 44
0.0
 45
0.0
 46
0.0
 47
0.0
 48
0.0
 49
0.0
140
0.0
141
0.0
142
1.0
143
1.0
 70
  1712
 72
     0
 73
     0
 74
     0
  7

 75
     0
 76
     0
 77
     2
 78
   300
147
1.0
148
0.0
149
0.0
100
AcDbLayout
  1
Model
 70
     1
 71
     0
 10
0.0
 20
0.0
 11
12.0
 21
9.0
 12
0.0
 22
0.0
 32
0.0
 14
-0.0000000000000284
 24
0.0
 34
0.0
 15
157.0
 25
82.0
 35
0.0
146
0.0
 13
0.0
 23
0.0
 33
0.0
 16
1.0
 26
0.0
 36
0.0
 17
0.0
 27
1.0
 37
0.0
 76
     0
330
1F
331
29
  0
MLINESTYLE
  5
18
102
{ACAD_REACTORS
330
17
102
}
330
17
100
AcDbMlineStyle
  2
Standard
 70
     0
  3

 62
   256
 51
90.0
 52
90.0
 71
     2
 49
0.5
 62
   256
  6
BYLAYER
 49
-0.5
 62
   256
  6
BYLAYER
  0
ACDBPLACEHOLDER
  5
F
102
{ACAD_REACTORS
330
E
102
}
330
E
  0
VISUALSTYLE
  5
2F
102
{ACAD_REACTORS
330
2A
102
}
330
2A
100
AcDbVisualStyle
  2
2dWireframe
 70
     4
 71
     0
 72
     2
 73
     0
 90
        0
 40
-0.6
 41
-30.0
 62
     5
 63
     7
421
 16777215
 74
     1
 91
        4
 64
     7
 65
   257
 75
     1
175
     1
 42
1.0
 92
        0
 66
   257
 43
1.0
 76
     1
 77
     6
 78
     2
 67
     7
 79
     5
170
     0
171
     0
290
     0
174
     0
 93
        1
 44
0.0
173
     0
291
     0
 45
0.0
1001
ACAD
1000
AcDbSavedByObjectVersion
1070
     0
  0
VISUALSTYLE
  5
31
102
{ACAD_REACTORS
330
2A
102
}
330
2A
100
AcDbVisualStyle
  2
3D Hidden
 70
     6
 71
     1
 72
     2
 73
     2
 90
        0
 40
-0.6
 41
-30.0
 62
     5
 63
     7
421
 16777215
 74
     2
 91
        2
 64
     7
 65
   257
 75
     2
175
     1
 42
40.0
 92
        0
 66
   257
 43
1.0
 76
     1
 77
     6
 78
     2
 67
     7
 79
     3
170
     0
171
     0
290
     0
174
     0
 93
        1
 44
0.0
173
     0
291
     0
 45
0.0
1001
ACAD
1000
AcDbSavedByObjectVersion
1070
     0
  0
VISUALSTYLE
  5
30
102
{ACAD_REACTORS
330
2A
102
}
330
2A
100
AcDbVisualStyle
  2
3dWireframe
 70
     5
 71
     0
 72
     2
 73
     0
 90
        0
 40
-0.6
 41
-30.0
 62
     5
 63
     7
421
 16777215
 74
     1
 91
        4
 64
     7
 65
   257
 75
     1
175
     1
 42
1.0
 92
        0
 66
   257
 43
1.0
 76
     1
 77
     6
 78
     2
 67
     7
 79
     5
170
     0
171
     0
290
     0
174
     0
 93
        1
 44
0.0
173
     0
291
     0
 45
0.0
1001
ACAD
1000
AcDbSavedByObjectVersion
1070
     0
  0
VISUALSTYLE
  5
32
102
{ACAD_REACTORS
330
2A
102
}
330
2A
100
AcDbVisualStyle
  2
Basic
 70
     7
 71
     1
 72
     0
 73
     1
 90
        0
 40
-0.6
 41
-30.0
 62
     5
 63
     7
421
 16777215
 74
     0
 91
        4
 64
     7
 65
   257
 75
     1
175
     1
 42
1.0
 92
        8
 66
     7
 43
1.0
 76
     1
 77
     6
 78
     2
 67
     7
 79
     5
170
     0
171
     0
290
     0
174
     0
 93
        1
 44
0.0
173
     0
291
     1
 45
0.0
1001
ACAD
1000
AcDbSavedByObjectVersion
1070
     0
  0
VISUALSTYLE
  5
36
102
{ACAD_REACTORS
330
2A
102
}
330
2A
100
AcDbVisualStyle
  2
Brighten
 70
    12
 71
     2
 72
     2
 73
     0
 90
        0
 40
-0.6
 41
-30.0
 62
     5
 63
     7
421
 16777215
 74
     1
 91
        4
 64
     7
 65
   257
 75
     1
175
     1
 42
1.0
 92
        8
 66
     7
 43
1.0
 76
     1
 77
     6
 78
     2
 67
     7
 79
     5
170
     0
171
     0
290
     0
174
     0
 93
        1
 44
50.0
173
     0
291
     1
 45
0.0
1001
ACAD
1000
AcDbSavedByObjectVersion
1070
     0
  0
VISUALSTYLE
  5
3A
102
{ACAD_REACTORS
330
2A
102
}
330
2A
100
AcDbVisualStyle
  2
ColorChange
 70
    16
 71
     2
 72
     2
 73
     3
 90
        0
 40
-0.6
 41
-30.0
 62
     5
 63
     8
421
  8421504
 74
     1
 91
        4
 64
     7
 65
   257
 75
     1
175
     1
 42
1.0
 92
        8
 66
     8
424
  8421504
 43
1.0
 76
     1
 77
     6
 78
     2
 67
     7
 79
     5
170
     0
171
     0
290
     0
174
     0
 93
        1
 44
0.0
173
     0
291
     1
 45
0.0
1001
ACAD
1000
AcDbSavedByObjectVersion
1070
     0
  0
VISUALSTYLE
  5
34
102
{ACAD_REACTORS
330
2A
102
}
330
2A
100
AcDbVisualStyle
  2
Conceptual
 70
     9
 71
     3
 72
     2
 73
     0
 90
        0
 40
-0.6
 41
-30.0
 62
     5
 63
     7
421
 16777215
 74
     2
 91
        2
 64
     7
 65
   257
 75
     1
175
     1
 42
40.0
 92
        8
 66
     7
 43
1.0
 76
     1
 77
     6
 78
     2
 67
     7
 79
     3
170
     0
171
     0
290
     0
174
     0
 93
        1
 44
0.0
173
     0
291
     0
 45
0.0
1001
ACAD
1000
AcDbSavedByObjectVersion
1070
     0
  0
VISUALSTYLE
  5
35
102
{ACAD_REACTORS
330
2A
102
}
330
2A
100
AcDbVisualStyle
  2
Dim
 70
    11
 71
     2
 72
     2
 73
     0
 90
        0
 40
-0.6
 41
-30.0
 62
     5
 63
     7
421
 16777215
 74
     1
 91
        4
 64
     7
 65
   257
 75
     1
175
     1
 42
1.0
 92
        8
 66
     7
 43
1.0
 76
     1
 77
     6
 78
     2
 67
     7
 79
     5
170
     0
171
     0
290
     0
174
     0
 93
        1
 44
-50.0
173
     0
291
     1
 45
0.0
1001
ACAD
1000
AcDbSavedByObjectVersion
1070
     0
  0
VISUALSTYLE
  5
39
102
{ACAD_REACTORS
330
2A
102
}
330
2A
100
AcDbVisualStyle
  2
Facepattern
 70
    15
 71
     2
 72
     2
 73
     0
 90
        0
 40
-0.6
 41
-30.0
 62
     5
 63
     7
421
 16777215
 74
     1
 91
        4
 64
     7
 65
   257
 75
     1
175
     1
 42
1.0
 92
        8
 66
     7
 43
1.0
 76
     1
 77
     6
 78
     2
 67
     7
 79
     5
170
     0
171
     0
290
     0
174
     0
 93
        1
 44
0.0
173
     0
291
     1
 45
0.0
1001
ACAD
1000
AcDbSavedByObjectVersion
1070
     0
  0
VISUALSTYLE
  5
2B
102
{ACAD_REACTORS
330
2A
102
}
330
2A
100
AcDbVisualStyle
  2
Flat
 70
     0
 71
     2
 72
     1
 73
     1
 90
        2
 40
-0.6
 41
30.0
 62
     5
 63
     7
421
 16777215
 74
     0
 91
        4
 64
     7
 65
   257
 75
     1
175
     1
 42
1.0
 92
        8
 66
     7
 43
1.0
 76
     1
 77
     6
 78
     2
 67
     7
 79
     5
170
     0
171
     0
290
     0
174
     0
 93
       13
 44
0.0
173
     0
291
     1
 45
0.0
1001
ACAD
1000
AcDbSavedByObjectVersion
1070
     0
  0
VISUALSTYLE
  5
2C
102
{ACAD_REACTORS
330
2A
102
}
330
2A
100
AcDbVisualStyle
  2
FlatWithEdges
 70
     1
 71
     2
 72
     1
 73
     1
 90
        2
 40
-0.6
 41
30.0
 62
     5
 63
     7
421
 16777215
 74
     1
 91
        4
 64
     7
 65
   257
 75
     1
175
     1
 42
1.0
 92
        0
 66
   257
 43
1.0
 76
     1
 77
     6
 78
     2
 67
     7
 79
     5
170
     0
171
     0
290
     0
174
     0
 93
       13
 44
0.0
173
     0
291
     1
 45
0.0
1001
ACAD
1000
AcDbSavedByObjectVersion
1070
     0
  0
VISUALSTYLE
  5
2D
102
{ACAD_REACTORS
330
2A
102
}
330
2A
100
AcDbVisualStyle
  2
Gouraud
 70
     2
 71
     2
 72
     2
 73
     1
 90
        2
 40
-0.6
 41
30.0
 62
     5
 63
     7
421
 16777215
 74
     0
 91
        4
 64
     7
 65
   257
 75
     1
175
     1
 42
1.0
 92
        0
 66
     7
 43
1.0
 76
     1
 77
     6
 78
     2
 67
     7
 79
     5
170
     0
171
     0
290
     0
174
     0
 93
       13
 44
0.0
173
     0
291
     1
 45
0.0
1001
ACAD
1000
AcDbSavedByObjectVersion
1070
     0
  0
VISUALSTYLE
  5
2E
102
{ACAD_REACTORS
330
2A
102
}
330
2A
100
AcDbVisualStyle
  2
GouraudWithEdges
 70
     3
 71
     2
 72
     2
 73
     1
 90
        2
 40
-0.6
 41
30.0
 62
     5
 63
     7
421
 16777215
 74
     1
 91
        4
 64
     7
 65
   257
 75
     1
175
     1
 42
1.0
 92
        0
 66
   257
 43
1.0
 76
     1
 77
     6
 78
     2
 67
     7
 79
     5
170
     0
171
     0
290
     0
174
     0
 93
       13
 44
0.0
173
     0
291
     1
 45
0.0
1001
ACAD
1000
AcDbSavedByObjectVersion
1070
     0
  0
VISUALSTYLE
  5
38
102
{ACAD_REACTORS
330
2A
102
}
330
2A
100
AcDbVisualStyle
  2
Linepattern
 70
    14
 71
     2
 72
     2
 73
     0
 90
        0
 40
-0.6
 41
-30.0
 62
     5
 63
     7
421
 16777215
 74
     1
 91
        4
 64
     7
 65
   257
 75
     7
175
     7
 42
1.0
 92
        8
 66
     7
 43
1.0
 76
     1
 77
     6
 78
     2
 67
     7
 79
     5
170
     0
171
     0
290
     0
174
     0
 93
        1
 44
0.0
173
     0
291
     1
 45
0.0
1001
ACAD
1000
AcDbSavedByObjectVersion
1070
     0
  0
VISUALSTYLE
  5
33
102
{ACAD_REACTORS
330
2A
102
}
330
2A
100
AcDbVisualStyle
  2
Realistic
 70
     8
 71
     2
 72
     2
 73
     0
 90
        0
 40
-0.6
 41
-30.0
 62
     5
 63
     7
421
 16777215
 74
     1
 91
        0
 64
     7
 65
   257
 75
     1
175
     1
 42
1.0
 92
        8
 66
     8
424
  7895160
 43
1.0
 76
     1
 77
     6
 78
     2
 67
     7
 79
     5
170
     0
171
     0
290
     0
174
     0
 93
       13
 44
0.0
173
     0
291
     0
 45
0.0
1001
ACAD
1000
AcDbSavedByObjectVersion
1070
     0
  0
VISUALSTYLE
  5
37
102
{ACAD_REACTORS
330
2A
102
}
330
2A
100
AcDbVisualStyle
  2
Thicken
 70
    13
 71
     2
 72
     2
 73
     0
 90
        0
 40
-0.6
 41
-30.0
 62
     5
 63
     7
421
 16777215
 74
     1
 91
        4
 64
     7
 65
   257
 75
     1
175
     1
 42
1.0
 92
       12
 66
     7
 43
1.0
 76
     1
 77
     6
 78
     2
 67
     7
 79
     5
170
     0
171
     0
290
     0
174
     0
 93
        1
 44
0.0
173
     0
291
     1
 45
0.0
1001
ACAD
1000
AcDbSavedByObjectVersion
1070
     0
  0
ENDSEC
  0
EOF
