  0
SECTION
  2
HEADER
  9
$ACADVER
  1
AC1018
  9
$ACADMAINTVER
 70
     0
  9
$DWGCODEPAGE
  3
ANSI_932
  9
$INSBASE
 10
0.0
 20
0.0
 30
0.0
  9
$EXTMIN
 10
0.0002033767436034
 20
-0.0005012531554467
 30
0.0
  9
$EXTMAX
 10
98.0
 20
127.4320739342172
 30
0.0
  9
$LIMMIN
 10
0.0
 20
0.0
  9
$LIMMAX
 10
12.0
 20
9.0
  9
$ORTHOMODE
 70
     0
  9
$REGENMODE
 70
     1
  9
$FILLMODE
 70
     1
  9
$QTEXTMODE
 70
     0
  9
$MIRRTEXT
 70
     1
  9
$LTSCALE
 40
1.0
  9
$ATTMODE
 70
     1
  9
$TEXTSIZE
 40
0.2
  9
$TRACEWID
 40
0.05
  9
$TEXTSTYLE
  7
Standard
  9
$CLAYER
  8
0
  9
$CELTYPE
  6
ByLayer
  9
$CECOLOR
 62
   256
  9
$CELTSCALE
 40
1.0
  9
$DISPSILH
 70
     0
  9
$DIMSCALE
 40
1.0
  9
$DIMASZ
 40
0.18
  9
$DIMEXO
 40
0.0625
  9
$DIMDLI
 40
0.38
  9
$DIMRND
 40
0.0
  9
$DIMDLE
 40
0.0
  9
$DIMEXE
 40
0.18
  9
$DIMTP
 40
0.0
  9
$DIMTM
 40
0.0
  9
$DIMTXT
 40
0.18
  9
$DIMCEN
 40
0.09
  9
$DIMTSZ
 40
0.0
  9
$DIMTOL
 70
     0
  9
$DIMLIM
 70
     0
  9
$DIMTIH
 70
     1
  9
$DIMTOH
 70
     1
  9
$DIMSE1
 70
     0
  9
$DIMSE2
 70
     0
  9
$DIMTAD
 70
     0
  9
$DIMZIN
 70
     0
  9
$DIMBLK
  1

  9
$DIMASO
 70
     1
  9
$DIMSHO
 70
     1
  9
$DIMPOST
  1

  9
$DIMAPOST
  1

  9
$DIMALT
 70
     0
  9
$DIMALTD
 70
     2
  9
$DIMALTF
 40
25.4
  9
$DIMLFAC
 40
1.0
  9
$DIMTOFL
 70
     0
  9
$DIMTVP
 40
0.0
  9
$DIMTIX
 70
     0
  9
$DIMSOXD
 70
     0
  9
$DIMSAH
 70
     0
  9
$DIMBLK1
  1

  9
$DIMBLK2
  1

  9
$DIMSTYLE
  2
Standard
  9
$DIMCLRD
 70
     0
  9
$DIMCLRE
 70
     0
  9
$DIMCLRT
 70
     0
  9
$DIMTFAC
 40
1.0
  9
$DIMGAP
 40
0.09
  9
$DIMJUST
 70
     0
  9
$DIMSD1
 70
     0
  9
$DIMSD2
 70
     0
  9
$DIMTOLJ
 70
     1
  9
$DIMTZIN
 70
     0
  9
$DIMALTZ
 70
     0
  9
$DIMALTTZ
 70
     0
  9
$DIMUPT
 70
     0
  9
$DIMDEC
 70
     4
  9
$DIMTDEC
 70
     4
  9
$DIMALTU
 70
     2
  9
$DIMALTTD
 70
     2
  9
$DIMTXSTY
  7
Standard
  9
$DIMAUNIT
 70
     0
  9
$DIMADEC
 70
     0
  9
$DIMALTRND
 40
0.0
  9
$DIMAZIN
 70
     0
  9
$DIMDSEP
 70
    46
  9
$DIMATFIT
 70
     3
  9
$DIMFRAC
 70
     0
  9
$DIMLDRBLK
  1

  9
$DIMLUNIT
 70
     2
  9
$DIMLWD
 70
    -2
  9
$DIMLWE
 70
    -2
  9
$DIMTMOVE
 70
     0
  9
$LUNITS
 70
     2
  9
$LUPREC
 70
     2
  9
$SKETCHINC
 40
0.1
  9
$FILLETRAD
 40
0.5
  9
$AUNITS
 70
     0
  9
$AUPREC
 70
     0
  9
$MENU
  1
.
  9
$ELEVATION
 40
0.0
  9
$PELEVATION
 40
0.0
  9
$THICKNESS
 40
0.0
  9
$LIMCHECK
 70
     0
  9
$CHAMFERA
 40
0.5
  9
$CHAMFERB
 40
0.5
  9
$CHAMFERC
 40
1.0
  9
$CHAMFERD
 40
0.0
  9
$SKPOLY
 70
     0
  9
$TDCREATE
 40
2458232.555953634
  9
$TDUCREATE
 40
2458232.180953634
  9
$TDUPDATE
 40
2458232.555953646
  9
$TDUUPDATE
 40
2458232.180953646
  9
$TDINDWG
 40
0.0000000116
  9
$TDUSRTIMER
 40
0.0000000116
  9
$USRTIMER
 70
     1
  9
$ANGBASE
 50
0.0
  9
$ANGDIR
 70
     0
  9
$PDMODE
 70
     0
  9
$PDSIZE
 40
0.0
  9
$PLINEWID
 40
0.0
  9
$SPLFRAME
 70
     0
  9
$SPLINETYPE
 70
     6
  9
$SPLINESEGS
 70
     8
  9
$HANDSEED
  5
114
  9
$SURFTAB1
 70
     6
  9
$SURFTAB2
 70
     6
  9
$SURFTYPE
 70
     6
  9
$SURFU
 70
     6
  9
$SURFV
 70
     6
  9
$UCSBASE
  2

  9
$UCSNAME
  2

  9
$UCSORG
 10
0.0
 20
0.0
 30
0.0
  9
$UCSXDIR
 10
1.0
 20
0.0
 30
0.0
  9
$UCSYDIR
 10
0.0
 20
1.0
 30
0.0
  9
$UCSORTHOREF
  2

  9
$UCSORTHOVIEW
 70
     0
  9
$UCSORGTOP
 10
0.0
 20
0.0
 30
0.0
  9
$UCSORGBOTTOM
 10
0.0
 20
0.0
 30
0.0
  9
$UCSORGLEFT
 10
0.0
 20
0.0
 30
0.0
  9
$UCSORGRIGHT
 10
0.0
 20
0.0
 30
0.0
  9
$UCSORGFRONT
 10
0.0
 20
0.0
 30
0.0
  9
$UCSORGBACK
 10
0.0
 20
0.0
 30
0.0
  9
$PUCSBASE
  2

  9
$PUCSNAME
  2

  9
$PUCSORG
 10
0.0
 20
0.0
 30
0.0
  9
$PUCSXDIR
 10
1.0
 20
0.0
 30
0.0
  9
$PUCSYDIR
 10
0.0
 20
1.0
 30
0.0
  9
$PUCSORTHOREF
  2

  9
$PUCSORTHOVIEW
 70
     0
  9
$PUCSORGTOP
 10
0.0
 20
0.0
 30
0.0
  9
$PUCSORGBOTTOM
 10
0.0
 20
0.0
 30
0.0
  9
$PUCSORGLEFT
 10
0.0
 20
0.0
 30
0.0
  9
$PUCSORGRIGHT
 10
0.0
 20
0.0
 30
0.0
  9
$PUCSORGFRONT
 10
0.0
 20
0.0
 30
0.0
  9
$PUCSORGBACK
 10
0.0
 20
0.0
 30
0.0
  9
$USERI1
 70
     0
  9
$USERI2
 70
     0
  9
$USERI3
 70
     0
  9
$USERI4
 70
     0
  9
$USERI5
 70
     0
  9
$USERR1
 40
0.0
  9
$USERR2
 40
0.0
  9
$USERR3
 40
0.0
  9
$USERR4
 40
0.0
  9
$USERR5
 40
0.0
  9
$WORLDVIEW
 70
     1
  9
$SHADEDGE
 70
     3
  9
$SHADEDIF
 70
    70
  9
$TILEMODE
 70
     1
  9
$MAXACTVP
 70
    64
  9
$PINSBASE
 10
0.0
 20
0.0
 30
0.0
  9
$PLIMCHECK
 70
     0
  9
$PEXTMIN
 10
1.000000000000000E+20
 20
1.000000000000000E+20
 30
1.000000000000000E+20
  9
$PEXTMAX
 10
-1.000000000000000E+20
 20
-1.000000000000000E+20
 30
-1.000000000000000E+20
  9
$PLIMMIN
 10
0.0
 20
0.0
  9
$PLIMMAX
 10
12.0
 20
9.0
  9
$UNITMODE
 70
     0
  9
$VISRETAIN
 70
     1
  9
$PLINEGEN
 70
     0
  9
$PSLTSCALE
 70
     1
  9
$TREEDEPTH
 70
  3020
  9
$CMLSTYLE
  2
Standard
  9
$CMLJUST
 70
     0
  9
$CMLSCALE
 40
1.0
  9
$PROXYGRAPHICS
 70
     1
  9
$MEASUREMENT
 70
     0
  9
$CELWEIGHT
370
    -1
  9
$ENDCAPS
280
     0
  9
$JOINSTYLE
280
     0
  9
$LWDISPLAY
290
     0
  9
$INSUNITS
 70
     4
  9
$HYPERLINKBASE
  1

  9
$STYLESHEET
  1

  9
$XEDIT
290
     1
  9
$CEPSNTYPE
380
     0
  9
$PSTYLEMODE
290
     1
  9
$FINGERPRINTGUID
  2
{D9B49ACE-D938-4A82-81D1-8849B4E3659A}
  9
$VERSIONGUID
  2
{FAEB1C32-E019-11D5-929B-00C0DF256EC4}
  9
$EXTNAMES
290
     1
  9
$PSVPSCALE
 40
0.0
  9
$OLESTARTUP
290
     0
  9
$SORTENTS
280
   127
  9
$INDEXCTL
280
     0
  9
$HIDETEXT
280
     1
  9
$XCLIPFRAME
290
     0
  9
$HALOGAP
280
     0
  9
$OBSCOLOR
 70
   257
  9
$OBSLTYPE
280
     0
  9
$INTERSECTIONDISPLAY
280
     0
  9
$INTERSECTIONCOLOR
 70
   257
  9
$DIMASSOC
280
     2
  9
$PROJECTNAME
  1

  0
ENDSEC
  0
SECTION
  2
CLASSES
  0
CLASS
  1
ACDBDICTIONARYWDFLT
  2
AcDbDictionaryWithDefault
  3
ObjectDBX Classes
 90
        0
 91
        3
280
     0
281
     0
  0
CLASS
  1
VISUALSTYLE
  2
AcDbVisualStyle
  3
ObjectDBX Classes
 90
     4095
 91
        3
280
     0
281
     0
  0
ENDSEC
  0
SECTION
  2
TABLES
  0
TABLE
  2
VPORT
  5
8
330
0
100
AcDbSymbolTable
 70
     1
  0
VPORT
  5
29
330
8
100
AcDbSymbolTableRecord
100
AcDbViewportTableRecord
  2
*Active
 70
     0
 10
0.0
 20
0.0
 11
1.0
 21
1.0
 12
0.0
 22
0.0
 13
0.0
 23
0.0
 14
0.5
 24
0.5
 15
0.5
 25
0.5
 16
0.0
 26
0.0
 36
1.0
 17
49.0001016883718
 27
63.71578634053088
 37
0.0
 40
129.9812266911201
 41
0.7690325372390909
 42
50.0
 43
0.0
 44
0.0
 50
0.0
 51
0.0
 71
     0
 72
   100
 73
     1
 74
     3
 75
     0
 76
     0
 77
     0
 78
     0
281
     0
 65
     1
110
0.0
120
0.0
130
0.0
111
1.0
121
0.0
131
0.0
112
0.0
122
1.0
132
0.0
 79
     0
146
0.0
  0
ENDTAB
  0
TABLE
  2
LTYPE
  5
5
330
0
100
AcDbSymbolTable
 70
     1
  0
LTYPE
  5
14
330
5
100
AcDbSymbolTableRecord
100
AcDbLinetypeTableRecord
  2
ByBlock
 70
     0
  3

 72
    65
 73
     0
 40
0.0
  0
LTYPE
  5
15
330
5
100
AcDbSymbolTableRecord
100
AcDbLinetypeTableRecord
  2
ByLayer
 70
     0
  3

 72
    65
 73
     0
 40
0.0
  0
LTYPE
  5
16
330
5
100
AcDbSymbolTableRecord
100
AcDbLinetypeTableRecord
  2
Continuous
 70
     0
  3
Solid line
 72
    65
 73
     0
 40
0.0
  0
ENDTAB
  0
TABLE
  2
LAYER
  5
2
330
0
100
AcDbSymbolTable
 70
     3
  0
LAYER
  5
10
330
2
100
AcDbSymbolTableRecord
100
AcDbLayerTableRecord
  2
0
 70
     0
 62
     7
  6
Continuous
370
    -3
390
F
  0
LAYER
  5
3B
330
2
100
AcDbSymbolTableRecord
100
AcDbLayerTableRecord
  2
______
 70
     0
 62
     7
  6
Continuous
370
    -3
390
F
  0
LAYER
  5
3E
330
2
100
AcDbSymbolTableRecord
100
AcDbLayerTableRecord
  2
MAKE2D VISIBLE LINES
 70
     0
 62
     7
  6
Continuous
370
    -3
390
F
  0
ENDTAB
  0
TABLE
  2
STYLE
  5
3
330
0
100
AcDbSymbolTable
 70
     1
  0
STYLE
  5
11
330
3
100
AcDbSymbolTableRecord
100
AcDbTextStyleTableRecord
  2
Standard
 70
     0
 40
0.0
 41
1.0
 50
0.0
 71
     0
 42
0.2
  3
txt
  4

  0
ENDTAB
  0
TABLE
  2
VIEW
  5
6
330
0
100
AcDbSymbolTable
 70
     0
  0
ENDTAB
  0
TABLE
  2
UCS
  5
7
330
0
100
AcDbSymbolTable
 70
     0
  0
ENDTAB
  0
TABLE
  2
APPID
  5
9
330
0
100
AcDbSymbolTable
 70
     1
  0
APPID
  5
12
330
9
100
AcDbSymbolTableRecord
100
AcDbRegAppTableRecord
  2
ACAD
 70
     0
  0
ENDTAB
  0
TABLE
  2
DIMSTYLE
  5
A
330
0
100
AcDbSymbolTable
 70
     1
100
AcDbDimStyleTable
  0
DIMSTYLE
105
27
330
A
100
AcDbSymbolTableRecord
100
AcDbDimStyleTableRecord
  2
Standard
 70
     0
340
11
  0
ENDTAB
  0
TABLE
  2
BLOCK_RECORD
  5
1
330
0
100
AcDbSymbolTable
 70
     1
  0
BLOCK_RECORD
  5
1F
330
1
100
AcDbSymbolTableRecord
100
AcDbBlockTableRecord
  2
*Model_Space
340
22
  0
BLOCK_RECORD
  5
1B
330
1
100
AcDbSymbolTableRecord
100
AcDbBlockTableRecord
  2
*Paper_Space
340
1E
  0
BLOCK_RECORD
  5
23
330
1
100
AcDbSymbolTableRecord
100
AcDbBlockTableRecord
  2
*Paper_Space0
340
26
  0
ENDTAB
  0
ENDSEC
  0
SECTION
  2
BLOCKS
  0
BLOCK
  5
20
330
1F
100
AcDbEntity
  8
0
100
AcDbBlockBegin
  2
*Model_Space
 70
     0
 71
     0
 10
0.0
 20
0.0
 30
0.0
  3
*Model_Space
  1

  0
ENDBLK
  5
21
330
1F
100
AcDbEntity
  8
0
100
AcDbBlockEnd
  0
BLOCK
  5
1C
330
1B
100
AcDbEntity
 67
     1
  8
0
100
AcDbBlockBegin
  2
*Paper_Space
 70
     0
 71
     0
 10
0.0
 20
0.0
 30
0.0
  3
*Paper_Space
  1

  0
ENDBLK
  5
1D
330
1B
100
AcDbEntity
 67
     1
  8
0
100
AcDbBlockEnd
  0
BLOCK
  5
24
330
23
100
AcDbEntity
  8
0
100
AcDbBlockBegin
  2
*Paper_Space0
 70
     0
 71
     0
 10
0.0
 20
0.0
 30
0.0
  3
*Paper_Space0
  1

  0
ENDBLK
  5
25
330
23
100
AcDbEntity
  8
0
100
AcDbBlockEnd
  0
ENDSEC
  0
SECTION
  2
ENTITIES
  0
ARC
  5
3C
330
1F
100
AcDbEntity
  8
______
100
AcDbCircle
 10
-1.817586092996001
 20
67.00527143261428
 30
0.0
 40
6.000000000000077
100
AcDbArc
 50
290.0006768546019
 51
20.00068632160753
  0
ARC
  5
3D
330
1F
100
AcDbEntity
  8
______
100
AcDbCircle
 10
28.0762018823095
 20
67.00562457813632
 30
0.0
 40
6.000000000000077
100
AcDbArc
 50
160.0006673875962
 51
250.0006768546019
  0
SPLINE
  5
3F
330
1F
100
AcDbEntity
  8
MAKE2D VISIBLE LINES
100
AcDbSpline
210
0.0
220
0.0
230
1.0
 70
    15
 71
     2
 72
    12
 73
     9
 74
     0
 42
0.0000000001
 43
0.0000000001
 40
0.0
 40
0.0
 40
0.0
 40
2.356194490192337
 40
2.356194490192337
 40
4.712388980384672
 40
4.712388980384672
 40
7.068583470577035
 40
7.068583470577035
 40
9.42477796076938
 40
9.42477796076938
 40
9.42477796076938
 10
93.41039809578068
 20
71.91858274799414
 30
0.0
 41
1.0
 10
92.8973845321925
 20
70.50903775631258
 30
0.0
 41
0.7071067811865441
 10
91.48783954051096
 20
71.02205131990071
 30
0.0
 41
1.0
 10
90.07829454882943
 20
71.53506488348886
 30
0.0
 41
0.7071067811865526
 10
90.59130811241754
 20
72.94460987517043
 30
0.0
 41
1.0
 10
91.10432167600567
 20
74.35415486685203
 30
0.0
 41
0.7071067811865325
 10
92.51386666768725
 20
73.84114130326385
 30
0.0
 41
1.0
 10
93.9234116593688
 20
73.32812773967571
 30
0.0
 41
0.7071067811865476
 10
93.41039809578068
 20
71.91858274799414
 30
0.0
 41
1.0
  0
SPLINE
  5
40
330
1F
100
AcDbEntity
  8
MAKE2D VISIBLE LINES
100
AcDbSpline
210
0.0
220
0.0
230
1.0
 70
    12
 71
     2
 72
     8
 73
     5
 74
     0
 42
0.0000000001
 43
0.0000000001
 40
0.0
 40
0.0
 40
0.0
 40
9.424777960769369
 40
9.424777960769369
 40
18.84955592153874
 40
18.84955592153874
 40
18.84955592153874
 10
89.94879884974652
 20
66.79341634485601
 30
0.0
 41
1.0
 10
95.5869788164728
 20
64.74136209050344
 30
0.0
 41
0.7071067811865488
 10
97.63903307082538
 20
70.37954205722971
 30
0.0
 41
1.0
 10
99.6910873251779
 20
76.01772202395595
 30
0.0
 41
0.7071067811865505
 10
94.05290735845169
 20
78.06977627830855
 30
0.0
 41
1.0
  0
SPLINE
  5
41
330
1F
100
AcDbEntity
  8
MAKE2D VISIBLE LINES
100
AcDbSpline
210
0.0
220
0.0
230
1.0
 70
    12
 71
     2
 72
     8
 73
     5
 74
     0
 42
0.0000000001
 43
0.0000000001
 40
0.0
 40
0.0
 40
0.0
 40
9.424777960769369
 40
9.424777960769369
 40
18.84955592153874
 40
18.84955592153874
 40
18.84955592153874
 10
64.15925259406266
 20
66.79311168414243
 30
0.0
 41
1.0
 10
58.52112111214488
 20
64.74092421887339
 30
0.0
 41
0.7071067811865488
 10
56.4689336468758
 20
70.37905570079117
 30
0.0
 41
1.0
 10
54.41674618160678
 20
76.01718718270894
 30
0.0
 41
0.7071067811865505
 10
60.05487766352454
 20
78.06937464797804
 30
0.0
 41
1.0
  0
POLYLINE
  5
42
330
1F
100
AcDbEntity
  8
______
100
AcDb2dPolyline
 66
     1
 10
0.0
 20
0.0
 30
0.0
  0
VERTEX
  5
44
330
42
100
AcDbEntity
  8
______
100
AcDbVertex
100
AcDb2dVertex
 10
51.00075187976045
 20
81.0000000044411
 30
0.0
  0
VERTEX
  5
45
330
42
100
AcDbEntity
  8
______
100
AcDbVertex
100
AcDb2dVertex
 10
50.99974937339499
 20
123.4311119551062
 30
0.0
  0
SEQEND
  5
43
330
42
100
AcDbEntity
  8
______
  0
POLYLINE
  5
46
330
1F
100
AcDbEntity
  8
______
100
AcDb2dPolyline
 66
     1
 10
0.0
 20
0.0
 30
0.0
  0
VERTEX
  5
48
330
46
100
AcDbEntity
  8
______
100
AcDbVertex
100
AcDb2dVertex
 10
33.0002506278064
 20
123.4308993208831
 30
0.0
  0
VERTEX
  5
49
330
46
100
AcDbEntity
  8
______
100
AcDbVertex
100
AcDb2dVertex
 10
33.00025108669659
 20
80.96094690239865
 30
0.0
  0
SEQEND
  5
47
330
46
100
AcDbEntity
  8
______
  0
POLYLINE
  5
4A
330
1F
100
AcDbEntity
  8
______
100
AcDb2dPolyline
 66
     1
 10
0.0
 20
0.0
 30
0.0
  0
VERTEX
  5
4C
330
4A
100
AcDbEntity
  8
______
100
AcDbVertex
100
AcDb2dVertex
 10
55.00020337290584
 20
127.431159214114
 30
0.0
  0
VERTEX
  5
4D
330
4A
100
AcDbEntity
  8
______
100
AcDbVertex
100
AcDb2dVertex
 10
29.00020337472005
 20
127.4308520672386
 30
0.0
  0
SEQEND
  5
4B
330
4A
100
AcDbEntity
  8
______
  0
ARC
  5
4E
330
1F
100
AcDbEntity
  8
______
100
AcDbCircle
 10
55.0002506262713
 20
123.4311592143931
 30
0.0
 40
4.000501253155447
100
AcDbArc
 50
90.0006768546018
 51
180.0006768546019
  0
ARC
  5
4F
330
1F
100
AcDbEntity
  8
______
100
AcDbCircle
 10
29.00025062808551
 20
123.4308520675177
 30
0.0
 40
4.0
100
AcDbArc
 50
0.0006768546026685
 51
90.00067685460267
  0
ARC
  5
50
330
1F
100
AcDbEntity
  8
______
100
AcDbCircle
 10
0.0003156034865643
 20
117.9305094810019
 30
0.0
 40
4.0
100
AcDbArc
 50
0.0006768546026685
 51
90.00067685460266
  0
ARC
  5
51
330
1F
100
AcDbEntity
  8
______
100
AcDbCircle
 10
26.00031560167235
 20
117.9308166278774
 30
0.0
 40
4.000501253155447
100
AcDbArc
 50
90.00067685460186
 51
180.0006768546019
  0
POLYLINE
  5
52
330
1F
100
AcDbEntity
  8
______
100
AcDb2dPolyline
 66
     1
 10
0.0
 20
0.0
 30
0.0
  0
VERTEX
  5
54
330
52
100
AcDbEntity
  8
______
100
AcDbVertex
100
AcDb2dVertex
 10
22.0008168551615
 20
75.49965741792532
 30
0.0
  0
VERTEX
  5
55
330
52
100
AcDbEntity
  8
______
100
AcDbVertex
100
AcDb2dVertex
 10
21.99981434879605
 20
117.9307693685904
 30
0.0
  0
SEQEND
  5
53
330
52
100
AcDbEntity
  8
______
  0
POLYLINE
  5
56
330
1F
100
AcDbEntity
  8
______
100
AcDb2dPolyline
 66
     1
 10
0.0
 20
0.0
 30
0.0
  0
VERTEX
  5
58
330
56
100
AcDbEntity
  8
______
100
AcDbVertex
100
AcDb2dVertex
 10
4.000315603207454
 20
117.9305567343673
 30
0.0
  0
VERTEX
  5
59
330
56
100
AcDbEntity
  8
______
100
AcDbVertex
100
AcDb2dVertex
 10
4.00031606209765
 20
75.46060431588286
 30
0.0
  0
SEQEND
  5
57
330
56
100
AcDbEntity
  8
______
  0
POLYLINE
  5
5A
330
1F
100
AcDbEntity
  8
______
100
AcDb2dPolyline
 66
     1
 10
0.0
 20
0.0
 30
0.0
  0
VERTEX
  5
5C
330
5A
100
AcDbEntity
  8
______
100
AcDbVertex
100
AcDb2dVertex
 10
26.00026834238542
 20
121.9313178807537
 30
0.0
  0
VERTEX
  5
5D
330
5A
100
AcDbEntity
  8
______
100
AcDbVertex
100
AcDb2dVertex
 10
26.00020337492939
 20
127.4308166272145
 30
0.0
  0
VERTEX
  5
5E
330
5A
100
AcDbEntity
  8
______
100
AcDbVertex
100
AcDb2dVertex
 10
0.0002033767436034
 20
127.430509480339
 30
0.0
  0
VERTEX
  5
5F
330
5A
100
AcDbEntity
  8
______
100
AcDbVertex
100
AcDb2dVertex
 10
0.0002683501211069
 20
121.9305094807228
 30
0.0
  0
SEQEND
  5
5B
330
5A
100
AcDbEntity
  8
______
  0
POLYLINE
  5
60
330
1F
100
AcDbEntity
  8
______
100
AcDb2dPolyline
 66
     1
 10
0.0
 20
0.0
 30
0.0
  0
VERTEX
  5
62
330
60
100
AcDbEntity
  8
______
100
AcDbVertex
100
AcDb2dVertex
 10
54.94879885218872
 20
66.7930028779082
 30
0.0
  0
VERTEX
  5
63
330
60
100
AcDbEntity
  8
______
100
AcDbVertex
100
AcDb2dVertex
 10
42.05397028063117
 20
71.48616414370163
 30
0.0
  0
VERTEX
  5
64
330
60
100
AcDbEntity
  8
______
100
AcDbVertex
100
AcDb2dVertex
 10
29.15925259650487
 20
66.79269821719468
 30
0.0
  0
SEQEND
  5
61
330
60
100
AcDbEntity
  8
______
  0
POLYLINE
  5
65
330
1F
100
AcDbEntity
  8
______
100
AcDb2dPolyline
 66
     1
 10
0.0
 20
0.0
 30
0.0
  0
VERTEX
  5
67
330
65
100
AcDbEntity
  8
______
100
AcDbVertex
100
AcDb2dVertex
 10
51.00075187976045
 20
81.0000000044411
 30
0.0
  0
VERTEX
  5
68
330
65
100
AcDbEntity
  8
______
100
AcDbVertex
100
AcDb2dVertex
 10
53.45717069409012
 20
80.10596953571456
 30
0.0
  0
SEQEND
  5
66
330
65
100
AcDbEntity
  8
______
  0
POLYLINE
  5
69
330
1F
100
AcDbEntity
  8
______
100
AcDb2dPolyline
 66
     1
 10
0.0
 20
0.0
 30
0.0
  0
VERTEX
  5
6B
330
69
100
AcDbEntity
  8
______
100
AcDbVertex
100
AcDb2dVertex
 10
51.43795727924397
 20
74.55802235060355
 30
0.0
  0
VERTEX
  5
6C
330
69
100
AcDbEntity
  8
______
100
AcDbVertex
100
AcDb2dVertex
 10
53.45717069409012
 20
80.10596953571456
 30
0.0
  0
SEQEND
  5
6A
330
69
100
AcDbEntity
  8
______
  0
POLYLINE
  5
6D
330
1F
100
AcDbEntity
  8
______
100
AcDb2dPolyline
 66
     1
 10
0.0
 20
0.0
 30
0.0
  0
VERTEX
  5
6F
330
6D
100
AcDbEntity
  8
______
100
AcDbVertex
100
AcDb2dVertex
 10
33.00025108669659
 20
80.96094690239865
 30
0.0
  0
VERTEX
  5
70
330
6D
100
AcDbEntity
  8
______
100
AcDbVertex
100
AcDb2dVertex
 10
30.78352173876928
 20
80.15409374611804
 30
0.0
  0
SEQEND
  5
6E
330
6D
100
AcDbEntity
  8
______
  0
POLYLINE
  5
71
330
1F
100
AcDbEntity
  8
______
100
AcDb2dPolyline
 66
     1
 10
0.0
 20
0.0
 30
0.0
  0
VERTEX
  5
73
330
71
100
AcDbEntity
  8
______
100
AcDbVertex
100
AcDb2dVertex
 10
32.82048007443695
 20
74.55780241598995
 30
0.0
  0
VERTEX
  5
74
330
71
100
AcDbEntity
  8
______
100
AcDbVertex
100
AcDb2dVertex
 10
30.78352173876928
 20
80.15409374611804
 30
0.0
  0
SEQEND
  5
72
330
71
100
AcDbEntity
  8
______
  0
POLYLINE
  5
75
330
1F
100
AcDbEntity
  8
______
100
AcDb2dPolyline
 66
     1
 10
0.0
 20
0.0
 30
0.0
  0
VERTEX
  5
77
330
75
100
AcDbEntity
  8
______
100
AcDbVertex
100
AcDb2dVertex
 10
22.0008168551615
 20
75.49965741792532
 30
0.0
  0
VERTEX
  5
78
330
75
100
AcDbEntity
  8
______
100
AcDbVertex
100
AcDb2dVertex
 10
24.45723566949118
 20
74.60562694919876
 30
0.0
  0
SEQEND
  5
76
330
75
100
AcDbEntity
  8
______
  0
POLYLINE
  5
79
330
1F
100
AcDbEntity
  8
______
100
AcDb2dPolyline
 66
     1
 10
0.0
 20
0.0
 30
0.0
  0
VERTEX
  5
7B
330
79
100
AcDbEntity
  8
______
100
AcDbVertex
100
AcDb2dVertex
 10
25.94886382758976
 20
61.29266029139241
 30
0.0
  0
VERTEX
  5
7C
330
79
100
AcDbEntity
  8
______
100
AcDbVertex
100
AcDb2dVertex
 10
13.05403525603222
 20
65.98582155718584
 30
0.0
  0
VERTEX
  5
7D
330
79
100
AcDbEntity
  8
______
100
AcDbVertex
100
AcDb2dVertex
 10
0.1593175719059259
 20
61.29235563067889
 30
0.0
  0
SEQEND
  5
7A
330
79
100
AcDbEntity
  8
______
  0
ARC
  5
7E
330
1F
100
AcDbEntity
  8
______
100
AcDbCircle
 10
27.18234893160295
 20
72.50561401913006
 30
0.0
 40
6.000000000000077
100
AcDbArc
 50
290.0006768546019
 51
20.00068632160754
  0
ARC
  5
7F
330
1F
100
AcDbEntity
  8
______
100
AcDbCircle
 10
90.00025062382909
 20
123.4315726813409
 30
0.0
 40
4.000501253155447
100
AcDbArc
 50
90.00067685460192
 51
180.0006768546019
  0
ARC
  5
80
330
1F
100
AcDbEntity
  8
______
100
AcDbCircle
 10
64.0002506256433
 20
123.4312655344654
 30
0.0
 40
4.0
100
AcDbArc
 50
0.0006768546018542
 51
90.00067685460186
  0
POLYLINE
  5
81
330
1F
100
AcDbEntity
  8
______
100
AcDb2dPolyline
 66
     1
 10
0.0
 20
0.0
 30
0.0
  0
VERTEX
  5
83
330
81
100
AcDbEntity
  8
______
100
AcDbVertex
100
AcDb2dVertex
 10
90.00020337046362
 20
127.4315726810618
 30
0.0
  0
VERTEX
  5
84
330
81
100
AcDbEntity
  8
______
100
AcDbVertex
100
AcDb2dVertex
 10
64.00020337227784
 20
127.4312655341863
 30
0.0
  0
SEQEND
  5
82
330
81
100
AcDbEntity
  8
______
  0
POLYLINE
  5
85
330
1F
100
AcDbEntity
  8
______
100
AcDb2dPolyline
 66
     1
 10
0.0
 20
0.0
 30
0.0
  0
VERTEX
  5
87
330
85
100
AcDbEntity
  8
______
100
AcDbVertex
100
AcDb2dVertex
 10
22.43802225464502
 20
69.05767976408775
 30
0.0
  0
VERTEX
  5
88
330
85
100
AcDbEntity
  8
______
100
AcDbVertex
100
AcDb2dVertex
 10
24.45723566949118
 20
74.60562694919876
 30
0.0
  0
SEQEND
  5
86
330
85
100
AcDbEntity
  8
______
  0
POLYLINE
  5
89
330
1F
100
AcDbEntity
  8
______
100
AcDb2dPolyline
 66
     1
 10
0.0
 20
0.0
 30
0.0
  0
VERTEX
  5
8B
330
89
100
AcDbEntity
  8
______
100
AcDbVertex
100
AcDb2dVertex
 10
4.00031606209765
 20
75.46060431588286
 30
0.0
  0
VERTEX
  5
8C
330
89
100
AcDbEntity
  8
______
100
AcDbVertex
100
AcDb2dVertex
 10
1.783586714170335
 20
74.65375115960225
 30
0.0
  0
SEQEND
  5
8A
330
89
100
AcDbEntity
  8
______
  0
POLYLINE
  5
8D
330
1F
100
AcDbEntity
  8
______
100
AcDb2dPolyline
 66
     1
 10
0.0
 20
0.0
 30
0.0
  0
VERTEX
  5
8F
330
8D
100
AcDbEntity
  8
______
100
AcDbVertex
100
AcDb2dVertex
 10
3.820545049838
 20
69.05745982947417
 30
0.0
  0
VERTEX
  5
90
330
8D
100
AcDbEntity
  8
______
100
AcDbVertex
100
AcDb2dVertex
 10
1.783586714170335
 20
74.65375115960225
 30
0.0
  0
SEQEND
  5
8E
330
8D
100
AcDbEntity
  8
______
  0
SPLINE
  5
91
330
1F
100
AcDbEntity
  8
MAKE2D VISIBLE LINES
100
AcDbSpline
210
0.0
220
0.0
230
1.0
 70
    15
 71
     2
 72
    12
 73
     9
 74
     0
 42
0.0000000001
 43
0.0000000001
 40
0.0
 40
0.0
 40
0.0
 40
2.356194490192337
 40
2.356194490192337
 40
4.712388980384672
 40
4.712388980384672
 40
7.068583470577035
 40
7.068583470577035
 40
9.42477796076938
 40
9.42477796076938
 40
9.42477796076938
 10
60.69753225831415
 20
71.91819629974297
 30
0.0
 41
1.0
 10
61.21057912463145
 20
70.50866342926354
 30
0.0
 41
0.7071067811865441
 10
62.62011199511087
 20
71.02171029558079
 30
0.0
 41
1.0
 10
64.0296448655903
 20
71.53475716189804
 30
0.0
 41
0.7071067811865526
 10
63.51659799927305
 20
72.9442900323775
 30
0.0
 41
1.0
 10
63.00355113295579
 20
74.35382290285698
 30
0.0
 41
0.7071067811865325
 10
61.59401826247634
 20
73.84077603653968
 30
0.0
 41
1.0
 10
60.18448539199689
 20
73.32772917022241
 30
0.0
 41
0.7071067811865476
 10
60.69753225831415
 20
71.91819629974297
 30
0.0
 41
1.0
  0
POLYLINE
  5
92
330
1F
100
AcDbEntity
  8
______
100
AcDb2dPolyline
 66
     1
 10
0.0
 20
0.0
 30
0.0
  0
VERTEX
  5
94
330
92
100
AcDbEntity
  8
______
100
AcDbVertex
100
AcDb2dVertex
 10
89.94879884974651
 20
66.79341634485594
 30
0.0
  0
VERTEX
  5
95
330
92
100
AcDbEntity
  8
______
100
AcDbVertex
100
AcDb2dVertex
 10
77.05397027818896
 20
71.48657761064939
 30
0.0
  0
VERTEX
  5
96
330
92
100
AcDbEntity
  8
______
100
AcDbVertex
100
AcDb2dVertex
 10
64.15925259406266
 20
66.79311168414243
 30
0.0
  0
SEQEND
  5
93
330
92
100
AcDbEntity
  8
______
  0
ARC
  5
97
330
1F
100
AcDbEntity
  8
______
100
AcDbCircle
 10
57.07613690690845
 20
72.50596716465212
 30
0.0
 40
6.000000000000077
100
AcDbArc
 50
160.0006673875962
 51
250.0006768546018
  0
POLYLINE
  5
98
330
1F
100
AcDbEntity
  8
______
100
AcDb2dPolyline
 66
     1
 10
0.0
 20
0.0
 30
0.0
  0
VERTEX
  5
9A
330
98
100
AcDbEntity
  8
______
100
AcDbVertex
100
AcDb2dVertex
 10
86.00075187731824
 20
81.00041347138885
 30
0.0
  0
VERTEX
  5
9B
330
98
100
AcDbEntity
  8
______
100
AcDbVertex
100
AcDb2dVertex
 10
85.99974937095278
 20
123.431525422054
 30
0.0
  0
SEQEND
  5
99
330
98
100
AcDbEntity
  8
______
  0
POLYLINE
  5
9C
330
1F
100
AcDbEntity
  8
______
100
AcDb2dPolyline
 66
     1
 10
0.0
 20
0.0
 30
0.0
  0
VERTEX
  5
9E
330
9C
100
AcDbEntity
  8
______
100
AcDbVertex
100
AcDb2dVertex
 10
68.00025062536419
 20
123.4313127878309
 30
0.0
  0
VERTEX
  5
9F
330
9C
100
AcDbEntity
  8
______
100
AcDbVertex
100
AcDb2dVertex
 10
68.00025108425439
 20
80.9613603693464
 30
0.0
  0
SEQEND
  5
9D
330
9C
100
AcDbEntity
  8
______
  0
POLYLINE
  5
A0
330
1F
100
AcDbEntity
  8
______
100
AcDb2dPolyline
 66
     1
 10
0.0
 20
0.0
 30
0.0
  0
VERTEX
  5
A2
330
A0
100
AcDbEntity
  8
______
100
AcDbVertex
100
AcDb2dVertex
 10
94.05290735845169
 20
78.06977627830855
 30
0.0
  0
VERTEX
  5
A3
330
A0
100
AcDbEntity
  8
______
100
AcDbVertex
100
AcDb2dVertex
 10
86.00075187731824
 20
81.00041347138885
 30
0.0
  0
SEQEND
  5
A1
330
A0
100
AcDbEntity
  8
______
  0
POLYLINE
  5
A4
330
1F
100
AcDbEntity
  8
______
100
AcDb2dPolyline
 66
     1
 10
0.0
 20
0.0
 30
0.0
  0
VERTEX
  5
A6
330
A4
100
AcDbEntity
  8
______
100
AcDbVertex
100
AcDb2dVertex
 10
68.00025108425439
 20
80.9613603693464
 30
0.0
  0
VERTEX
  5
A7
330
A4
100
AcDbEntity
  8
______
100
AcDbVertex
100
AcDb2dVertex
 10
60.05487766352454
 20
78.06937464797804
 30
0.0
  0
SEQEND
  5
A5
330
A4
100
AcDbEntity
  8
______
  0
POLYLINE
  5
A8
330
1F
100
AcDbEntity
  8
______
100
AcDb2dPolyline
 66
     1
 10
0.0
 20
0.0
 30
0.0
  0
VERTEX
  5
AA
330
A8
100
AcDbEntity
  8
______
100
AcDbVertex
100
AcDb2dVertex
 10
75.56287070182807
 20
58.37309477779201
 30
0.0
  0
VERTEX
  5
AB
330
A8
100
AcDbEntity
  8
______
100
AcDbVertex
100
AcDb2dVertex
 10
73.54359174732885
 20
52.82517144672548
 30
0.0
  0
SEQEND
  5
A9
330
A8
100
AcDbEntity
  8
______
  0
POLYLINE
  5
AC
330
1F
100
AcDbEntity
  8
______
100
AcDb2dPolyline
 66
     1
 10
0.0
 20
0.0
 30
0.0
  0
VERTEX
  5
AE
330
AC
100
AcDbEntity
  8
______
100
AcDbVertex
100
AcDb2dVertex
 10
94.00050125315545
 20
51.96995241552646
 30
0.0
  0
VERTEX
  5
AF
330
AC
100
AcDbEntity
  8
______
100
AcDbVertex
100
AcDb2dVertex
 10
96.21724013255985
 20
52.77677938477027
 30
0.0
  0
SEQEND
  5
AD
330
AC
100
AcDbEntity
  8
______
  0
POLYLINE
  5
B0
330
1F
100
AcDbEntity
  8
______
100
AcDb2dPolyline
 66
     1
 10
0.0
 20
0.0
 30
0.0
  0
VERTEX
  5
B2
330
B0
100
AcDbEntity
  8
______
100
AcDbVertex
100
AcDb2dVertex
 10
94.18034790793418
 20
58.37309477779203
 30
0.0
  0
VERTEX
  5
B3
330
B0
100
AcDbEntity
  8
______
100
AcDbVertex
100
AcDb2dVertex
 10
96.21724013255985
 20
52.77677938477027
 30
0.0
  0
SEQEND
  5
B1
330
B0
100
AcDbEntity
  8
______
  0
POLYLINE
  5
B4
330
1F
100
AcDbEntity
  8
______
100
AcDb2dPolyline
 66
     1
 10
0.0
 20
0.0
 30
0.0
  0
VERTEX
  5
B6
330
B4
100
AcDbEntity
  8
______
100
AcDbVertex
100
AcDb2dVertex
 10
72.05212085995404
 20
66.13815572471552
 30
0.0
  0
VERTEX
  5
B7
330
B4
100
AcDbEntity
  8
______
100
AcDbVertex
100
AcDb2dVertex
 10
84.9468939886957
 20
61.4448421282378
 30
0.0
  0
VERTEX
  5
B8
330
B4
100
AcDbEntity
  8
______
100
AcDbVertex
100
AcDb2dVertex
 10
97.84166711743741
 20
66.13815572471546
 30
0.0
  0
SEQEND
  5
B5
330
B4
100
AcDbEntity
  8
______
  0
POLYLINE
  5
B9
330
1F
100
AcDbEntity
  8
______
100
AcDb2dPolyline
 66
     1
 10
0.0
 20
0.0
 30
0.0
  0
VERTEX
  5
BB
330
B9
100
AcDbEntity
  8
______
100
AcDbVertex
100
AcDb2dVertex
 10
76.0
 20
51.93111195954732
 30
0.0
  0
VERTEX
  5
BC
330
B9
100
AcDbEntity
  8
______
100
AcDbVertex
100
AcDb2dVertex
 10
73.54359174732885
 20
52.82517144672548
 30
0.0
  0
SEQEND
  5
BA
330
B9
100
AcDbEntity
  8
______
  0
ARC
  5
BD
330
1F
100
AcDbEntity
  8
______
100
AcDbCircle
 10
69.92471531618543
 20
60.42521656934087
 30
0.0
 40
6.000000000000077
100
AcDbArc
 50
339.9999905329944
 51
70.00000000000009
  0
ARC
  5
BE
330
1F
100
AcDbEntity
  8
______
100
AcDbCircle
 10
99.81850329357684
 20
60.42521656934087
 30
0.0
 40
6.000000000000077
100
AcDbArc
 50
109.9999999999999
 51
200.0000094670056
  0
POLYLINE
  5
BF
330
1F
100
AcDbEntity
  8
______
100
AcDb2dPolyline
 66
     1
 10
0.0
 20
0.0
 30
0.0
  0
VERTEX
  5
C1
330
BF
100
AcDbEntity
  8
______
100
AcDbVertex
100
AcDb2dVertex
 10
65.18034790793418
 20
52.87309477779203
 30
0.0
  0
VERTEX
  5
C2
330
BF
100
AcDbEntity
  8
______
100
AcDbVertex
100
AcDb2dVertex
 10
67.21724013255985
 20
47.27677938477027
 30
0.0
  0
SEQEND
  5
C0
330
BF
100
AcDbEntity
  8
______
  0
POLYLINE
  5
C3
330
1F
100
AcDbEntity
  8
______
100
AcDb2dPolyline
 66
     1
 10
0.0
 20
0.0
 30
0.0
  0
VERTEX
  5
C5
330
C3
100
AcDbEntity
  8
______
100
AcDbVertex
100
AcDb2dVertex
 10
65.00050125315545
 20
46.46995241552646
 30
0.0
  0
VERTEX
  5
C6
330
C3
100
AcDbEntity
  8
______
100
AcDbVertex
100
AcDb2dVertex
 10
67.21724013255985
 20
47.27677938477027
 30
0.0
  0
SEQEND
  5
C4
330
C3
100
AcDbEntity
  8
______
  0
POLYLINE
  5
C7
330
1F
100
AcDbEntity
  8
______
100
AcDb2dPolyline
 66
     1
 10
0.0
 20
0.0
 30
0.0
  0
VERTEX
  5
C9
330
C7
100
AcDbEntity
  8
______
100
AcDbVertex
100
AcDb2dVertex
 10
46.56287070182807
 20
52.87309477779201
 30
0.0
  0
VERTEX
  5
CA
330
C7
100
AcDbEntity
  8
______
100
AcDbVertex
100
AcDb2dVertex
 10
44.54359174732885
 20
47.32517144672548
 30
0.0
  0
SEQEND
  5
C8
330
C7
100
AcDbEntity
  8
______
  0
POLYLINE
  5
CB
330
1F
100
AcDbEntity
  8
______
100
AcDb2dPolyline
 66
     1
 10
0.0
 20
0.0
 30
0.0
  0
VERTEX
  5
CD
330
CB
100
AcDbEntity
  8
______
100
AcDbVertex
100
AcDb2dVertex
 10
47.0
 20
46.43111195954732
 30
0.0
  0
VERTEX
  5
CE
330
CB
100
AcDbEntity
  8
______
100
AcDbVertex
100
AcDb2dVertex
 10
44.54359174732885
 20
47.32517144672548
 30
0.0
  0
SEQEND
  5
CC
330
CB
100
AcDbEntity
  8
______
  0
POLYLINE
  5
CF
330
1F
100
AcDbEntity
  8
______
100
AcDb2dPolyline
 66
     1
 10
0.0
 20
0.0
 30
0.0
  0
VERTEX
  5
D1
330
CF
100
AcDbEntity
  8
______
100
AcDbVertex
100
AcDb2dVertex
 10
43.05212085995404
 20
60.63815572471552
 30
0.0
  0
VERTEX
  5
D2
330
CF
100
AcDbEntity
  8
______
100
AcDbVertex
100
AcDb2dVertex
 10
55.94689398869571
 20
55.9448421282378
 30
0.0
  0
VERTEX
  5
D3
330
CF
100
AcDbEntity
  8
______
100
AcDbVertex
100
AcDb2dVertex
 10
68.84166711743741
 20
60.63815572471545
 30
0.0
  0
SEQEND
  5
D0
330
CF
100
AcDbEntity
  8
______
  0
POLYLINE
  5
D4
330
1F
100
AcDbEntity
  8
______
100
AcDb2dPolyline
 66
     1
 10
0.0
 20
0.0
 30
0.0
  0
VERTEX
  5
D6
330
D4
100
AcDbEntity
  8
______
100
AcDbVertex
100
AcDb2dVertex
 10
72.0
 20
5.499498746844553
 30
0.0
  0
VERTEX
  5
D7
330
D4
100
AcDbEntity
  8
______
100
AcDbVertex
100
AcDb2dVertex
 10
72.0
 20
0.0000000000000009
 30
0.0
  0
VERTEX
  5
D8
330
D4
100
AcDbEntity
  8
______
100
AcDbVertex
100
AcDb2dVertex
 10
98.0
 20
0.0
 30
0.0
  0
VERTEX
  5
D9
330
D4
100
AcDbEntity
  8
______
100
AcDbVertex
100
AcDb2dVertex
 10
98.0
 20
5.5
 30
0.0
  0
SEQEND
  5
D5
330
D4
100
AcDbEntity
  8
______
  0
POLYLINE
  5
DA
330
1F
100
AcDbEntity
  8
______
100
AcDb2dPolyline
 66
     1
 10
0.0
 20
0.0
 30
0.0
  0
VERTEX
  5
DC
330
DA
100
AcDbEntity
  8
______
100
AcDbVertex
100
AcDb2dVertex
 10
94.0
 20
9.5
 30
0.0
  0
VERTEX
  5
DD
330
DA
100
AcDbEntity
  8
______
100
AcDbVertex
100
AcDb2dVertex
 10
94.00050125315545
 20
51.96995241552646
 30
0.0
  0
SEQEND
  5
DB
330
DA
100
AcDbEntity
  8
______
  0
POLYLINE
  5
DE
330
1F
100
AcDbEntity
  8
______
100
AcDb2dPolyline
 66
     1
 10
0.0
 20
0.0
 30
0.0
  0
VERTEX
  5
E0
330
DE
100
AcDbEntity
  8
______
100
AcDbVertex
100
AcDb2dVertex
 10
76.0
 20
51.93111195954732
 30
0.0
  0
VERTEX
  5
E1
330
DE
100
AcDbEntity
  8
______
100
AcDbVertex
100
AcDb2dVertex
 10
76.00050125315545
 20
9.5
 30
0.0
  0
SEQEND
  5
DF
330
DE
100
AcDbEntity
  8
______
  0
ARC
  5
E2
330
1F
100
AcDbEntity
  8
______
100
AcDbCircle
 10
72.0
 20
9.5
 30
0.0
 40
4.000501253155447
100
AcDbArc
 50
270.0
 51
0.0
  0
ARC
  5
E3
330
1F
100
AcDbEntity
  8
______
100
AcDbCircle
 10
98.0
 20
9.5
 30
0.0
 40
4.0
100
AcDbArc
 50
180.0
 51
270.0
  0
ARC
  5
E4
330
1F
100
AcDbEntity
  8
______
100
AcDbCircle
 10
69.0
 20
4.0
 30
0.0
 40
4.0
100
AcDbArc
 50
180.0
 51
270.0
  0
ARC
  5
E5
330
1F
100
AcDbEntity
  8
______
100
AcDbCircle
 10
43.0
 20
4.0
 30
0.0
 40
4.000501253155447
100
AcDbArc
 50
270.0
 51
0.0
  0
POLYLINE
  5
E6
330
1F
100
AcDbEntity
  8
______
100
AcDb2dPolyline
 66
     1
 10
0.0
 20
0.0
 30
0.0
  0
VERTEX
  5
E8
330
E6
100
AcDbEntity
  8
______
100
AcDbVertex
100
AcDb2dVertex
 10
43.0
 20
0.0
 30
0.0
  0
VERTEX
  5
E9
330
E6
100
AcDbEntity
  8
______
100
AcDbVertex
100
AcDb2dVertex
 10
69.0
 20
0.0
 30
0.0
  0
SEQEND
  5
E7
330
E6
100
AcDbEntity
  8
______
  0
POLYLINE
  5
EA
330
1F
100
AcDbEntity
  8
______
100
AcDb2dPolyline
 66
     1
 10
0.0
 20
0.0
 30
0.0
  0
VERTEX
  5
EC
330
EA
100
AcDbEntity
  8
______
100
AcDbVertex
100
AcDb2dVertex
 10
65.0
 20
4.0
 30
0.0
  0
VERTEX
  5
ED
330
EA
100
AcDbEntity
  8
______
100
AcDbVertex
100
AcDb2dVertex
 10
65.00050125315545
 20
46.46995241552646
 30
0.0
  0
SEQEND
  5
EB
330
EA
100
AcDbEntity
  8
______
  0
POLYLINE
  5
EE
330
1F
100
AcDbEntity
  8
______
100
AcDb2dPolyline
 66
     1
 10
0.0
 20
0.0
 30
0.0
  0
VERTEX
  5
F0
330
EE
100
AcDbEntity
  8
______
100
AcDbVertex
100
AcDb2dVertex
 10
47.0
 20
46.43111195954732
 30
0.0
  0
VERTEX
  5
F1
330
EE
100
AcDbEntity
  8
______
100
AcDbVertex
100
AcDb2dVertex
 10
47.00050125315545
 20
4.0
 30
0.0
  0
SEQEND
  5
EF
330
EE
100
AcDbEntity
  8
______
  0
ARC
  5
F2
330
1F
100
AcDbEntity
  8
______
100
AcDbCircle
 10
34.0
 20
4.0
 30
0.0
 40
4.0
100
AcDbArc
 50
180.0
 51
270.0
  0
ARC
  5
F3
330
1F
100
AcDbEntity
  8
______
100
AcDbCircle
 10
8.0
 20
4.0
 30
0.0
 40
4.000501253155447
100
AcDbArc
 50
270.0
 51
0.0
  0
POLYLINE
  5
F4
330
1F
100
AcDbEntity
  8
______
100
AcDb2dPolyline
 66
     1
 10
0.0
 20
0.0
 30
0.0
  0
VERTEX
  5
F6
330
F4
100
AcDbEntity
  8
______
100
AcDbVertex
100
AcDb2dVertex
 10
8.0
 20
0.0
 30
0.0
  0
VERTEX
  5
F7
330
F4
100
AcDbEntity
  8
______
100
AcDbVertex
100
AcDb2dVertex
 10
34.0
 20
0.0
 30
0.0
  0
SEQEND
  5
F5
330
F4
100
AcDbEntity
  8
______
  0
ARC
  5
F8
330
1F
100
AcDbEntity
  8
______
100
AcDbCircle
 10
70.81850329357684
 20
54.92521656934087
 30
0.0
 40
6.000000000000077
100
AcDbArc
 50
109.9999999999999
 51
200.0000094670056
  0
ARC
  5
F9
330
1F
100
AcDbEntity
  8
______
100
AcDbCircle
 10
40.92471531618543
 20
54.92521656934087
 30
0.0
 40
6.000000000000077
100
AcDbArc
 50
339.9999905329942
 51
69.99999999999987
  0
POLYLINE
  5
FA
330
1F
100
AcDbEntity
  8
______
100
AcDb2dPolyline
 66
     1
 10
0.0
 20
0.0
 30
0.0
  0
VERTEX
  5
FC
330
FA
100
AcDbEntity
  8
______
100
AcDbVertex
100
AcDb2dVertex
 10
8.052120859954037
 20
60.63815572471552
 30
0.0
  0
VERTEX
  5
FD
330
FA
100
AcDbEntity
  8
______
100
AcDbVertex
100
AcDb2dVertex
 10
20.94689398869571
 20
55.9448421282378
 30
0.0
  0
VERTEX
  5
FE
330
FA
100
AcDbEntity
  8
______
100
AcDbVertex
100
AcDb2dVertex
 10
33.84166711743741
 20
60.63815572471545
 30
0.0
  0
SEQEND
  5
FB
330
FA
100
AcDbEntity
  8
______
  0
POLYLINE
  5
FF
330
1F
100
AcDbEntity
  8
______
100
AcDb2dPolyline
 66
     1
 10
0.0
 20
0.0
 30
0.0
  0
VERTEX
  5
101
330
FF
100
AcDbEntity
  8
______
100
AcDbVertex
100
AcDb2dVertex
 10
30.0
 20
4.0
 30
0.0
  0
VERTEX
  5
102
330
FF
100
AcDbEntity
  8
______
100
AcDbVertex
100
AcDb2dVertex
 10
30.00050125315545
 20
46.46995241552646
 30
0.0
  0
SEQEND
  5
100
330
FF
100
AcDbEntity
  8
______
  0
POLYLINE
  5
103
330
1F
100
AcDbEntity
  8
______
100
AcDb2dPolyline
 66
     1
 10
0.0
 20
0.0
 30
0.0
  0
VERTEX
  5
105
330
103
100
AcDbEntity
  8
______
100
AcDbVertex
100
AcDb2dVertex
 10
12.0
 20
46.43111195954732
 30
0.0
  0
VERTEX
  5
106
330
103
100
AcDbEntity
  8
______
100
AcDbVertex
100
AcDb2dVertex
 10
12.00050125315545
 20
4.0
 30
0.0
  0
SEQEND
  5
104
330
103
100
AcDbEntity
  8
______
  0
POLYLINE
  5
107
330
1F
100
AcDbEntity
  8
______
100
AcDb2dPolyline
 66
     1
 10
0.0
 20
0.0
 30
0.0
  0
VERTEX
  5
109
330
107
100
AcDbEntity
  8
______
100
AcDbVertex
100
AcDb2dVertex
 10
30.00050125315545
 20
46.46995241552646
 30
0.0
  0
VERTEX
  5
10A
330
107
100
AcDbEntity
  8
______
100
AcDbVertex
100
AcDb2dVertex
 10
37.94590883734543
 20
49.36184427528455
 30
0.0
  0
SEQEND
  5
108
330
107
100
AcDbEntity
  8
______
  0
POLYLINE
  5
10B
330
1F
100
AcDbEntity
  8
______
100
AcDb2dPolyline
 66
     1
 10
0.0
 20
0.0
 30
0.0
  0
VERTEX
  5
10D
330
10B
100
AcDbEntity
  8
______
100
AcDbVertex
100
AcDb2dVertex
 10
3.947879140045988
 20
49.36184427528455
 30
0.0
  0
VERTEX
  5
10E
330
10B
100
AcDbEntity
  8
______
100
AcDbVertex
100
AcDb2dVertex
 10
12.0
 20
46.43111195954732
 30
0.0
  0
SEQEND
  5
10C
330
10B
100
AcDbEntity
  8
______
  0
SPLINE
  5
10F
330
1F
100
AcDbEntity
  8
MAKE2D VISIBLE LINES
100
AcDbSpline
210
0.0
220
0.0
230
1.0
 70
    15
 71
     2
 72
    12
 73
     9
 74
     0
 42
0.0000000001
 43
0.0000000001
 40
0.0
 40
0.0
 40
0.0
 40
2.356194490192337
 40
2.356194490192337
 40
4.712388980384672
 40
4.712388980384672
 40
7.068583470577035
 40
7.068583470577035
 40
9.42477796076938
 40
9.42477796076938
 40
9.42477796076938
 10
37.30332690857028
 20
55.5130302149885
 30
0.0
 41
1.0
 10
36.79029669358174
 20
56.92256914616735
 30
0.0
 41
0.7071067811865441
 10
35.38075776240292
 20
56.40953893117887
 30
0.0
 41
1.0
 10
33.97121883122409
 20
55.89650871619036
 30
0.0
 41
0.7071067811865526
 10
34.48424904621255
 20
54.4869697850115
 30
0.0
 41
1.0
 10
34.99727926120105
 20
53.0774308538326
 30
0.0
 41
0.7071067811865325
 10
36.40681819237992
 20
53.59046106882113
 30
0.0
 41
1.0
 10
37.81635712355878
 20
54.10349128380964
 30
0.0
 41
0.7071067811865476
 10
37.30332690857028
 20
55.5130302149885
 30
0.0
 41
1.0
  0
SPLINE
  5
110
330
1F
100
AcDbEntity
  8
MAKE2D VISIBLE LINES
100
AcDbSpline
210
0.0
220
0.0
230
1.0
 70
    12
 71
     2
 72
     8
 73
     5
 74
     0
 42
0.0000000001
 43
0.0000000001
 40
0.0
 40
0.0
 40
0.0
 40
9.424777960769369
 40
9.424777960769369
 40
18.84955592153874
 40
18.84955592153874
 40
18.84955592153874
 10
33.84166711743741
 20
60.63815572471545
 30
0.0
 41
1.0
 10
39.47982284215285
 20
62.69027658466945
 30
0.0
 41
0.7071067811865488
 10
41.53194370210687
 20
57.05212085995401
 30
0.0
 41
1.0
 10
43.58406456206084
 20
51.41396513523858
 30
0.0
 41
0.7071067811865505
 10
37.94590883734543
 20
49.36184427528455
 30
0.0
 41
1.0
  0
SPLINE
  5
111
330
1F
100
AcDbEntity
  8
MAKE2D VISIBLE LINES
100
AcDbSpline
210
0.0
220
0.0
230
1.0
 70
    12
 71
     2
 72
     8
 73
     5
 74
     0
 42
0.0000000001
 43
0.0000000001
 40
0.0
 40
0.0
 40
0.0
 40
9.424777960769369
 40
9.424777960769369
 40
18.84955592153874
 40
18.84955592153874
 40
18.84955592153874
 10
8.052120859954012
 20
60.63815572471545
 30
0.0
 41
1.0
 10
2.41396513523857
 20
62.69027658466945
 30
0.0
 41
0.7071067811865488
 10
0.3618442752845487
 20
57.05212085995401
 30
0.0
 41
1.0
 10
-1.690276584669424
 20
51.41396513523858
 30
0.0
 41
0.7071067811865505
 10
3.947879140045987
 20
49.36184427528455
 30
0.0
 41
1.0
  0
SPLINE
  5
112
330
1F
100
AcDbEntity
  8
MAKE2D VISIBLE LINES
100
AcDbSpline
210
0.0
220
0.0
230
1.0
 70
    15
 71
     2
 72
    12
 73
     9
 74
     0
 42
0.0000000001
 43
0.0000000001
 40
0.0
 40
0.0
 40
0.0
 40
2.356194490192337
 40
2.356194490192337
 40
4.712388980384672
 40
4.712388980384672
 40
7.068583470577035
 40
7.068583470577035
 40
9.42477796076938
 40
9.42477796076938
 40
9.42477796076938
 10
4.590461068821137
 20
55.5130302149885
 30
0.0
 41
1.0
 10
5.10349128380967
 20
56.92256914616735
 30
0.0
 41
0.7071067811865441
 10
6.513030214988502
 20
56.40953893117887
 30
0.0
 41
1.0
 10
7.922569146167332
 20
55.89650871619036
 30
0.0
 41
0.7071067811865526
 10
7.409538931178862
 20
54.4869697850115
 30
0.0
 41
1.0
 10
6.896508716190373
 20
53.0774308538326
 30
0.0
 41
0.7071067811865325
 10
5.486969785011496
 20
53.59046106882113
 30
0.0
 41
1.0
 10
4.07743085383264
 20
54.10349128380964
 30
0.0
 41
0.7071067811865476
 10
4.590461068821137
 20
55.5130302149885
 30
0.0
 41
1.0
  0
ENDSEC
  0
SECTION
  2
OBJECTS
  0
DICTIONARY
  5
C
330
0
100
AcDbDictionary
281
     1
  3
ACAD_GROUP
350
D
  3
ACAD_LAYOUT
350
1A
  3
ACAD_MLINESTYLE
350
17
  3
ACAD_PLOTSETTINGS
350
19
  3
ACAD_PLOTSTYLENAME
350
E
  3
ACAD_TABLESTYLE
350
113
  3
ACAD_VISUALSTYLE
350
2A
  0
DICTIONARY
  5
D
102
{ACAD_REACTORS
330
C
102
}
330
C
100
AcDbDictionary
281
     1
  0
DICTIONARY
  5
1A
102
{ACAD_REACTORS
330
C
102
}
330
C
100
AcDbDictionary
281
     1
  3
Layout1
350
1E
  3
Layout2
350
26
  3
Model
350
22
  0
DICTIONARY
  5
17
102
{ACAD_REACTORS
330
C
102
}
330
C
100
AcDbDictionary
281
     1
  3
Standard
350
18
  0
DICTIONARY
  5
19
102
{ACAD_REACTORS
330
C
102
}
330
C
100
AcDbDictionary
281
     1
  0
ACDBDICTIONARYWDFLT
  5
E
102
{ACAD_REACTORS
330
C
102
}
330
C
100
AcDbDictionary
281
     1
  3
Normal
350
F
100
AcDbDictionaryWithDefault
340
F
  0
DICTIONARY
  5
113
102
{ACAD_REACTORS
330
C
102
}
330
C
100
AcDbDictionary
281
     1
  0
DICTIONARY
  5
2A
102
{ACAD_REACTORS
330
C
102
}
330
C
100
AcDbDictionary
281
     1
  3
2dWireframe
350
2F
  3
3D Hidden
350
31
  3
3dWireframe
350
30
  3
Basic
350
32
  3
Brighten
350
36
  3
ColorChange
350
3A
  3
Conceptual
350
34
  3
Dim
350
35
  3
Facepattern
350
39
  3
Flat
350
2B
  3
FlatWithEdges
350
2C
  3
Gouraud
350
2D
  3
GouraudWithEdges
350
2E
  3
Linepattern
350
38
  3
Realistic
350
33
  3
Thicken
350
37
  0
LAYOUT
  5
1E
102
{ACAD_REACTORS
330
1A
102
}
330
1A
100
AcDbPlotSettings
  1

  2
none_device
  4

  6

 40
0.0
 41
0.0
 42
0.0
 43
0.0
 44
0.0
 45
0.0
 46
0.0
 47
0.0
 48
0.0
 49
0.0
140
0.0
141
0.0
142
1.0
143
1.0
 70
   688
 72
     0
 73
     0
 74
     5
  7

 75
    16
 76
     0
 77
     2
 78
   300
147
1.0
148
0.0
149
0.0
100
AcDbLayout
  1
Layout1
 70
     1
 71
     1
 10
0.0
 20
0.0
 11
12.0
 21
9.0
 12
0.0
 22
0.0
 32
0.0
 14
1.000000000000000E+20
 24
1.000000000000000E+20
 34
1.000000000000000E+20
 15
-1.000000000000000E+20
 25
-1.000000000000000E+20
 35
-1.000000000000000E+20
146
0.0
 13
0.0
 23
0.0
 33
0.0
 16
1.0
 26
0.0
 36
0.0
 17
0.0
 27
1.0
 37
0.0
 76
     0
330
1B
  0
LAYOUT
  5
26
102
{ACAD_REACTORS
330
1A
102
}
330
1A
100
AcDbPlotSettings
  1

  2
none_device
  4

  6

 40
0.0
 41
0.0
 42
0.0
 43
0.0
 44
0.0
 45
0.0
 46
0.0
 47
0.0
 48
0.0
 49
0.0
140
0.0
141
0.0
142
1.0
143
1.0
 70
   688
 72
     0
 73
     0
 74
     5
  7

 75
    16
 76
     0
 77
     2
 78
   300
147
1.0
148
0.0
149
0.0
100
AcDbLayout
  1
Layout2
 70
     1
 71
     2
 10
0.0
 20
0.0
 11
0.0
 21
0.0
 12
0.0
 22
0.0
 32
0.0
 14
0.0
 24
0.0
 34
0.0
 15
0.0
 25
0.0
 35
0.0
146
0.0
 13
0.0
 23
0.0
 33
0.0
 16
1.0
 26
0.0
 36
0.0
 17
0.0
 27
1.0
 37
0.0
 76
     0
330
23
  0
LAYOUT
  5
22
102
{ACAD_REACTORS
330
1A
102
}
330
1A
100
AcDbPlotSettings
  1

  2
none_device
  4

  6

 40
0.0
 41
0.0
 42
0.0
 43
0.0
 44
0.0
 45
0.0
 46
0.0
 47
0.0
 48
0.0
 49
0.0
140
0.0
141
0.0
142
1.0
143
1.0
 70
  1712
 72
     0
 73
     0
 74
     0
  7

 75
     0
 76
     0
 77
     2
 78
   300
147
1.0
148
0.0
149
0.0
100
AcDbLayout
  1
Model
 70
     1
 71
     0
 10
0.0
 20
0.0
 11
12.0
 21
9.0
 12
0.0
 22
0.0
 32
0.0
 14
0.0002033767436034
 24
-0.0005012531554467
 34
0.0
 15
98.0
 25
127.4320739342172
 35
0.0
146
0.0
 13
0.0
 23
0.0
 33
0.0
 16
1.0
 26
0.0
 36
0.0
 17
0.0
 27
1.0
 37
0.0
 76
     0
330
1F
331
29
  0
MLINESTYLE
  5
18
102
{ACAD_REACTORS
330
17
102
}
330
17
100
AcDbMlineStyle
  2
Standard
 70
     0
  3

 62
   256
 51
90.0
 52
90.0
 71
     2
 49
0.5
 62
   256
  6
BYLAYER
 49
-0.5
 62
   256
  6
BYLAYER
  0
ACDBPLACEHOLDER
  5
F
102
{ACAD_REACTORS
330
E
102
}
330
E
  0
VISUALSTYLE
  5
2F
102
{ACAD_REACTORS
330
2A
102
}
330
2A
100
AcDbVisualStyle
  2
2dWireframe
 70
     4
 71
     0
 72
     2
 73
     0
 90
        0
 40
-0.6
 41
-30.0
 62
     5
 63
     7
421
 16777215
 74
     1
 91
        4
 64
     7
 65
   257
 75
     1
175
     1
 42
1.0
 92
        0
 66
   257
 43
1.0
 76
     1
 77
     6
 78
     2
 67
     7
 79
     5
170
     0
171
     0
290
     0
174
     0
 93
        1
 44
0.0
173
     0
291
     0
 45
0.0
1001
ACAD
1000
AcDbSavedByObjectVersion
1070
     0
  0
VISUALSTYLE
  5
31
102
{ACAD_REACTORS
330
2A
102
}
330
2A
100
AcDbVisualStyle
  2
3D Hidden
 70
     6
 71
     1
 72
     2
 73
     2
 90
        0
 40
-0.6
 41
-30.0
 62
     5
 63
     7
421
 16777215
 74
     2
 91
        2
 64
     7
 65
   257
 75
     2
175
     1
 42
40.0
 92
        0
 66
   257
 43
1.0
 76
     1
 77
     6
 78
     2
 67
     7
 79
     3
170
     0
171
     0
290
     0
174
     0
 93
        1
 44
0.0
173
     0
291
     0
 45
0.0
1001
ACAD
1000
AcDbSavedByObjectVersion
1070
     0
  0
VISUALSTYLE
  5
30
102
{ACAD_REACTORS
330
2A
102
}
330
2A
100
AcDbVisualStyle
  2
3dWireframe
 70
     5
 71
     0
 72
     2
 73
     0
 90
        0
 40
-0.6
 41
-30.0
 62
     5
 63
     7
421
 16777215
 74
     1
 91
        4
 64
     7
 65
   257
 75
     1
175
     1
 42
1.0
 92
        0
 66
   257
 43
1.0
 76
     1
 77
     6
 78
     2
 67
     7
 79
     5
170
     0
171
     0
290
     0
174
     0
 93
        1
 44
0.0
173
     0
291
     0
 45
0.0
1001
ACAD
1000
AcDbSavedByObjectVersion
1070
     0
  0
VISUALSTYLE
  5
32
102
{ACAD_REACTORS
330
2A
102
}
330
2A
100
AcDbVisualStyle
  2
Basic
 70
     7
 71
     1
 72
     0
 73
     1
 90
        0
 40
-0.6
 41
-30.0
 62
     5
 63
     7
421
 16777215
 74
     0
 91
        4
 64
     7
 65
   257
 75
     1
175
     1
 42
1.0
 92
        8
 66
     7
 43
1.0
 76
     1
 77
     6
 78
     2
 67
     7
 79
     5
170
     0
171
     0
290
     0
174
     0
 93
        1
 44
0.0
173
     0
291
     1
 45
0.0
1001
ACAD
1000
AcDbSavedByObjectVersion
1070
     0
  0
VISUALSTYLE
  5
36
102
{ACAD_REACTORS
330
2A
102
}
330
2A
100
AcDbVisualStyle
  2
Brighten
 70
    12
 71
     2
 72
     2
 73
     0
 90
        0
 40
-0.6
 41
-30.0
 62
     5
 63
     7
421
 16777215
 74
     1
 91
        4
 64
     7
 65
   257
 75
     1
175
     1
 42
1.0
 92
        8
 66
     7
 43
1.0
 76
     1
 77
     6
 78
     2
 67
     7
 79
     5
170
     0
171
     0
290
     0
174
     0
 93
        1
 44
50.0
173
     0
291
     1
 45
0.0
1001
ACAD
1000
AcDbSavedByObjectVersion
1070
     0
  0
VISUALSTYLE
  5
3A
102
{ACAD_REACTORS
330
2A
102
}
330
2A
100
AcDbVisualStyle
  2
ColorChange
 70
    16
 71
     2
 72
     2
 73
     3
 90
        0
 40
-0.6
 41
-30.0
 62
     5
 63
     8
421
  8421504
 74
     1
 91
        4
 64
     7
 65
   257
 75
     1
175
     1
 42
1.0
 92
        8
 66
     8
424
  8421504
 43
1.0
 76
     1
 77
     6
 78
     2
 67
     7
 79
     5
170
     0
171
     0
290
     0
174
     0
 93
        1
 44
0.0
173
     0
291
     1
 45
0.0
1001
ACAD
1000
AcDbSavedByObjectVersion
1070
     0
  0
VISUALSTYLE
  5
34
102
{ACAD_REACTORS
330
2A
102
}
330
2A
100
AcDbVisualStyle
  2
Conceptual
 70
     9
 71
     3
 72
     2
 73
     0
 90
        0
 40
-0.6
 41
-30.0
 62
     5
 63
     7
421
 16777215
 74
     2
 91
        2
 64
     7
 65
   257
 75
     1
175
     1
 42
40.0
 92
        8
 66
     7
 43
1.0
 76
     1
 77
     6
 78
     2
 67
     7
 79
     3
170
     0
171
     0
290
     0
174
     0
 93
        1
 44
0.0
173
     0
291
     0
 45
0.0
1001
ACAD
1000
AcDbSavedByObjectVersion
1070
     0
  0
VISUALSTYLE
  5
35
102
{ACAD_REACTORS
330
2A
102
}
330
2A
100
AcDbVisualStyle
  2
Dim
 70
    11
 71
     2
 72
     2
 73
     0
 90
        0
 40
-0.6
 41
-30.0
 62
     5
 63
     7
421
 16777215
 74
     1
 91
        4
 64
     7
 65
   257
 75
     1
175
     1
 42
1.0
 92
        8
 66
     7
 43
1.0
 76
     1
 77
     6
 78
     2
 67
     7
 79
     5
170
     0
171
     0
290
     0
174
     0
 93
        1
 44
-50.0
173
     0
291
     1
 45
0.0
1001
ACAD
1000
AcDbSavedByObjectVersion
1070
     0
  0
VISUALSTYLE
  5
39
102
{ACAD_REACTORS
330
2A
102
}
330
2A
100
AcDbVisualStyle
  2
Facepattern
 70
    15
 71
     2
 72
     2
 73
     0
 90
        0
 40
-0.6
 41
-30.0
 62
     5
 63
     7
421
 16777215
 74
     1
 91
        4
 64
     7
 65
   257
 75
     1
175
     1
 42
1.0
 92
        8
 66
     7
 43
1.0
 76
     1
 77
     6
 78
     2
 67
     7
 79
     5
170
     0
171
     0
290
     0
174
     0
 93
        1
 44
0.0
173
     0
291
     1
 45
0.0
1001
ACAD
1000
AcDbSavedByObjectVersion
1070
     0
  0
VISUALSTYLE
  5
2B
102
{ACAD_REACTORS
330
2A
102
}
330
2A
100
AcDbVisualStyle
  2
Flat
 70
     0
 71
     2
 72
     1
 73
     1
 90
        2
 40
-0.6
 41
30.0
 62
     5
 63
     7
421
 16777215
 74
     0
 91
        4
 64
     7
 65
   257
 75
     1
175
     1
 42
1.0
 92
        8
 66
     7
 43
1.0
 76
     1
 77
     6
 78
     2
 67
     7
 79
     5
170
     0
171
     0
290
     0
174
     0
 93
       13
 44
0.0
173
     0
291
     1
 45
0.0
1001
ACAD
1000
AcDbSavedByObjectVersion
1070
     0
  0
VISUALSTYLE
  5
2C
102
{ACAD_REACTORS
330
2A
102
}
330
2A
100
AcDbVisualStyle
  2
FlatWithEdges
 70
     1
 71
     2
 72
     1
 73
     1
 90
        2
 40
-0.6
 41
30.0
 62
     5
 63
     7
421
 16777215
 74
     1
 91
        4
 64
     7
 65
   257
 75
     1
175
     1
 42
1.0
 92
        0
 66
   257
 43
1.0
 76
     1
 77
     6
 78
     2
 67
     7
 79
     5
170
     0
171
     0
290
     0
174
     0
 93
       13
 44
0.0
173
     0
291
     1
 45
0.0
1001
ACAD
1000
AcDbSavedByObjectVersion
1070
     0
  0
VISUALSTYLE
  5
2D
102
{ACAD_REACTORS
330
2A
102
}
330
2A
100
AcDbVisualStyle
  2
Gouraud
 70
     2
 71
     2
 72
     2
 73
     1
 90
        2
 40
-0.6
 41
30.0
 62
     5
 63
     7
421
 16777215
 74
     0
 91
        4
 64
     7
 65
   257
 75
     1
175
     1
 42
1.0
 92
        0
 66
     7
 43
1.0
 76
     1
 77
     6
 78
     2
 67
     7
 79
     5
170
     0
171
     0
290
     0
174
     0
 93
       13
 44
0.0
173
     0
291
     1
 45
0.0
1001
ACAD
1000
AcDbSavedByObjectVersion
1070
     0
  0
VISUALSTYLE
  5
2E
102
{ACAD_REACTORS
330
2A
102
}
330
2A
100
AcDbVisualStyle
  2
GouraudWithEdges
 70
     3
 71
     2
 72
     2
 73
     1
 90
        2
 40
-0.6
 41
30.0
 62
     5
 63
     7
421
 16777215
 74
     1
 91
        4
 64
     7
 65
   257
 75
     1
175
     1
 42
1.0
 92
        0
 66
   257
 43
1.0
 76
     1
 77
     6
 78
     2
 67
     7
 79
     5
170
     0
171
     0
290
     0
174
     0
 93
       13
 44
0.0
173
     0
291
     1
 45
0.0
1001
ACAD
1000
AcDbSavedByObjectVersion
1070
     0
  0
VISUALSTYLE
  5
38
102
{ACAD_REACTORS
330
2A
102
}
330
2A
100
AcDbVisualStyle
  2
Linepattern
 70
    14
 71
     2
 72
     2
 73
     0
 90
        0
 40
-0.6
 41
-30.0
 62
     5
 63
     7
421
 16777215
 74
     1
 91
        4
 64
     7
 65
   257
 75
     7
175
     7
 42
1.0
 92
        8
 66
     7
 43
1.0
 76
     1
 77
     6
 78
     2
 67
     7
 79
     5
170
     0
171
     0
290
     0
174
     0
 93
        1
 44
0.0
173
     0
291
     1
 45
0.0
1001
ACAD
1000
AcDbSavedByObjectVersion
1070
     0
  0
VISUALSTYLE
  5
33
102
{ACAD_REACTORS
330
2A
102
}
330
2A
100
AcDbVisualStyle
  2
Realistic
 70
     8
 71
     2
 72
     2
 73
     0
 90
        0
 40
-0.6
 41
-30.0
 62
     5
 63
     7
421
 16777215
 74
     1
 91
        0
 64
     7
 65
   257
 75
     1
175
     1
 42
1.0
 92
        8
 66
     8
424
  7895160
 43
1.0
 76
     1
 77
     6
 78
     2
 67
     7
 79
     5
170
     0
171
     0
290
     0
174
     0
 93
       13
 44
0.0
173
     0
291
     0
 45
0.0
1001
ACAD
1000
AcDbSavedByObjectVersion
1070
     0
  0
VISUALSTYLE
  5
37
102
{ACAD_REACTORS
330
2A
102
}
330
2A
100
AcDbVisualStyle
  2
Thicken
 70
    13
 71
     2
 72
     2
 73
     0
 90
        0
 40
-0.6
 41
-30.0
 62
     5
 63
     7
421
 16777215
 74
     1
 91
        4
 64
     7
 65
   257
 75
     1
175
     1
 42
1.0
 92
       12
 66
     7
 43
1.0
 76
     1
 77
     6
 78
     2
 67
     7
 79
     5
170
     0
171
     0
290
     0
174
     0
 93
        1
 44
0.0
173
     0
291
     1
 45
0.0
1001
ACAD
1000
AcDbSavedByObjectVersion
1070
     0
  0
ENDSEC
  0
EOF
