  0
SECTION
  2
HEADER
  9
$ACADVER
  1
AC1018
  9
$ACADMAINTVER
 70
     0
  9
$DWGCODEPAGE
  3
ANSI_932
  9
$INSBASE
 10
0.0
 20
0.0
 30
0.0
  9
$EXTMIN
 10
0.0
 20
-20.5
 30
0.0
  9
$EXTMAX
 10
190.0
 20
106.0
 30
0.0
  9
$LIMMIN
 10
0.0
 20
0.0
  9
$LIMMAX
 10
12.0
 20
9.0
  9
$ORTHOMODE
 70
     0
  9
$REGENMODE
 70
     1
  9
$FILLMODE
 70
     1
  9
$QTEXTMODE
 70
     0
  9
$MIRRTEXT
 70
     1
  9
$LTSCALE
 40
1.0
  9
$ATTMODE
 70
     1
  9
$TEXTSIZE
 40
0.2
  9
$TRACEWID
 40
0.05
  9
$TEXTSTYLE
  7
Standard
  9
$CLAYER
  8
0
  9
$CELTYPE
  6
ByLayer
  9
$CECOLOR
 62
   256
  9
$CELTSCALE
 40
1.0
  9
$DISPSILH
 70
     0
  9
$DIMSCALE
 40
1.0
  9
$DIMASZ
 40
0.18
  9
$DIMEXO
 40
0.0625
  9
$DIMDLI
 40
0.38
  9
$DIMRND
 40
0.0
  9
$DIMDLE
 40
0.0
  9
$DIMEXE
 40
0.18
  9
$DIMTP
 40
0.0
  9
$DIMTM
 40
0.0
  9
$DIMTXT
 40
0.18
  9
$DIMCEN
 40
0.09
  9
$DIMTSZ
 40
0.0
  9
$DIMTOL
 70
     0
  9
$DIMLIM
 70
     0
  9
$DIMTIH
 70
     1
  9
$DIMTOH
 70
     1
  9
$DIMSE1
 70
     0
  9
$DIMSE2
 70
     0
  9
$DIMTAD
 70
     0
  9
$DIMZIN
 70
     0
  9
$DIMBLK
  1

  9
$DIMASO
 70
     1
  9
$DIMSHO
 70
     1
  9
$DIMPOST
  1

  9
$DIMAPOST
  1

  9
$DIMALT
 70
     0
  9
$DIMALTD
 70
     2
  9
$DIMALTF
 40
25.4
  9
$DIMLFAC
 40
1.0
  9
$DIMTOFL
 70
     0
  9
$DIMTVP
 40
0.0
  9
$DIMTIX
 70
     0
  9
$DIMSOXD
 70
     0
  9
$DIMSAH
 70
     0
  9
$DIMBLK1
  1

  9
$DIMBLK2
  1

  9
$DIMSTYLE
  2
Standard
  9
$DIMCLRD
 70
     0
  9
$DIMCLRE
 70
     0
  9
$DIMCLRT
 70
     0
  9
$DIMTFAC
 40
1.0
  9
$DIMGAP
 40
0.09
  9
$DIMJUST
 70
     0
  9
$DIMSD1
 70
     0
  9
$DIMSD2
 70
     0
  9
$DIMTOLJ
 70
     1
  9
$DIMTZIN
 70
     0
  9
$DIMALTZ
 70
     0
  9
$DIMALTTZ
 70
     0
  9
$DIMUPT
 70
     0
  9
$DIMDEC
 70
     4
  9
$DIMTDEC
 70
     4
  9
$DIMALTU
 70
     2
  9
$DIMALTTD
 70
     2
  9
$DIMTXSTY
  7
Standard
  9
$DIMAUNIT
 70
     0
  9
$DIMADEC
 70
     0
  9
$DIMALTRND
 40
0.0
  9
$DIMAZIN
 70
     0
  9
$DIMDSEP
 70
    46
  9
$DIMATFIT
 70
     3
  9
$DIMFRAC
 70
     0
  9
$DIMLDRBLK
  1

  9
$DIMLUNIT
 70
     2
  9
$DIMLWD
 70
    -2
  9
$DIMLWE
 70
    -2
  9
$DIMTMOVE
 70
     0
  9
$LUNITS
 70
     2
  9
$LUPREC
 70
     2
  9
$SKETCHINC
 40
0.1
  9
$FILLETRAD
 40
0.5
  9
$AUNITS
 70
     0
  9
$AUPREC
 70
     0
  9
$MENU
  1
.
  9
$ELEVATION
 40
0.0
  9
$PELEVATION
 40
0.0
  9
$THICKNESS
 40
0.0
  9
$LIMCHECK
 70
     0
  9
$CHAMFERA
 40
0.5
  9
$CHAMFERB
 40
0.5
  9
$CHAMFERC
 40
1.0
  9
$CHAMFERD
 40
0.0
  9
$SKPOLY
 70
     0
  9
$TDCREATE
 40
2459265.435306632
  9
$TDUCREATE
 40
2459265.060306632
  9
$TDUPDATE
 40
2459265.435306644
  9
$TDUUPDATE
 40
2459265.060306644
  9
$TDINDWG
 40
0.0000000116
  9
$TDUSRTIMER
 40
0.0000000116
  9
$USRTIMER
 70
     1
  9
$ANGBASE
 50
0.0
  9
$ANGDIR
 70
     0
  9
$PDMODE
 70
     0
  9
$PDSIZE
 40
0.0
  9
$PLINEWID
 40
0.0
  9
$SPLFRAME
 70
     0
  9
$SPLINETYPE
 70
     6
  9
$SPLINESEGS
 70
     8
  9
$HANDSEED
  5
16E
  9
$SURFTAB1
 70
     6
  9
$SURFTAB2
 70
     6
  9
$SURFTYPE
 70
     6
  9
$SURFU
 70
     6
  9
$SURFV
 70
     6
  9
$UCSBASE
  2

  9
$UCSNAME
  2

  9
$UCSORG
 10
0.0
 20
0.0
 30
0.0
  9
$UCSXDIR
 10
1.0
 20
0.0
 30
0.0
  9
$UCSYDIR
 10
0.0
 20
1.0
 30
0.0
  9
$UCSORTHOREF
  2

  9
$UCSORTHOVIEW
 70
     0
  9
$UCSORGTOP
 10
0.0
 20
0.0
 30
0.0
  9
$UCSORGBOTTOM
 10
0.0
 20
0.0
 30
0.0
  9
$UCSORGLEFT
 10
0.0
 20
0.0
 30
0.0
  9
$UCSORGRIGHT
 10
0.0
 20
0.0
 30
0.0
  9
$UCSORGFRONT
 10
0.0
 20
0.0
 30
0.0
  9
$UCSORGBACK
 10
0.0
 20
0.0
 30
0.0
  9
$PUCSBASE
  2

  9
$PUCSNAME
  2

  9
$PUCSORG
 10
0.0
 20
0.0
 30
0.0
  9
$PUCSXDIR
 10
1.0
 20
0.0
 30
0.0
  9
$PUCSYDIR
 10
0.0
 20
1.0
 30
0.0
  9
$PUCSORTHOREF
  2

  9
$PUCSORTHOVIEW
 70
     0
  9
$PUCSORGTOP
 10
0.0
 20
0.0
 30
0.0
  9
$PUCSORGBOTTOM
 10
0.0
 20
0.0
 30
0.0
  9
$PUCSORGLEFT
 10
0.0
 20
0.0
 30
0.0
  9
$PUCSORGRIGHT
 10
0.0
 20
0.0
 30
0.0
  9
$PUCSORGFRONT
 10
0.0
 20
0.0
 30
0.0
  9
$PUCSORGBACK
 10
0.0
 20
0.0
 30
0.0
  9
$USERI1
 70
     0
  9
$USERI2
 70
     0
  9
$USERI3
 70
     0
  9
$USERI4
 70
     0
  9
$USERI5
 70
     0
  9
$USERR1
 40
0.0
  9
$USERR2
 40
0.0
  9
$USERR3
 40
0.0
  9
$USERR4
 40
0.0
  9
$USERR5
 40
0.0
  9
$WORLDVIEW
 70
     1
  9
$SHADEDGE
 70
     3
  9
$SHADEDIF
 70
    70
  9
$TILEMODE
 70
     1
  9
$MAXACTVP
 70
    64
  9
$PINSBASE
 10
0.0
 20
0.0
 30
0.0
  9
$PLIMCHECK
 70
     0
  9
$PEXTMIN
 10
1.000000000000000E+20
 20
1.000000000000000E+20
 30
1.000000000000000E+20
  9
$PEXTMAX
 10
-1.000000000000000E+20
 20
-1.000000000000000E+20
 30
-1.000000000000000E+20
  9
$PLIMMIN
 10
0.0
 20
0.0
  9
$PLIMMAX
 10
12.0
 20
9.0
  9
$UNITMODE
 70
     0
  9
$VISRETAIN
 70
     1
  9
$PLINEGEN
 70
     0
  9
$PSLTSCALE
 70
     1
  9
$TREEDEPTH
 70
  3020
  9
$CMLSTYLE
  2
Standard
  9
$CMLJUST
 70
     0
  9
$CMLSCALE
 40
1.0
  9
$PROXYGRAPHICS
 70
     1
  9
$MEASUREMENT
 70
     0
  9
$CELWEIGHT
370
    -1
  9
$ENDCAPS
280
     0
  9
$JOINSTYLE
280
     0
  9
$LWDISPLAY
290
     0
  9
$INSUNITS
 70
     4
  9
$HYPERLINKBASE
  1

  9
$STYLESHEET
  1

  9
$XEDIT
290
     1
  9
$CEPSNTYPE
380
     0
  9
$PSTYLEMODE
290
     1
  9
$FINGERPRINTGUID
  2
{7434BAD0-95A6-4D13-A1CB-7B5A8D51B23C}
  9
$VERSIONGUID
  2
{FAEB1C32-E019-11D5-929B-00C0DF256EC4}
  9
$EXTNAMES
290
     1
  9
$PSVPSCALE
 40
0.0
  9
$OLESTARTUP
290
     0
  9
$SORTENTS
280
   127
  9
$INDEXCTL
280
     0
  9
$HIDETEXT
280
     1
  9
$XCLIPFRAME
290
     0
  9
$HALOGAP
280
     0
  9
$OBSCOLOR
 70
   257
  9
$OBSLTYPE
280
     0
  9
$INTERSECTIONDISPLAY
280
     0
  9
$INTERSECTIONCOLOR
 70
   257
  9
$DIMASSOC
280
     2
  9
$PROJECTNAME
  1

  0
ENDSEC
  0
SECTION
  2
CLASSES
  0
CLASS
  1
ACDBDICTIONARYWDFLT
  2
AcDbDictionaryWithDefault
  3
ObjectDBX Classes
 90
        0
 91
        3
280
     0
281
     0
  0
CLASS
  1
VISUALSTYLE
  2
AcDbVisualStyle
  3
ObjectDBX Classes
 90
     4095
 91
        3
280
     0
281
     0
  0
ENDSEC
  0
SECTION
  2
TABLES
  0
TABLE
  2
VPORT
  5
8
330
0
100
AcDbSymbolTable
 70
     1
  0
VPORT
  5
29
330
8
100
AcDbSymbolTableRecord
100
AcDbViewportTableRecord
  2
*Active
 70
     0
 10
0.0
 20
0.0
 11
1.0
 21
1.0
 12
0.0
 22
0.0
 13
0.0
 23
0.0
 14
0.5
 24
0.5
 15
0.5
 25
0.5
 16
0.0
 26
0.0
 36
1.0
 17
95.0
 27
42.75
 37
0.0
 40
129.03
 41
1.50197628458498
 42
50.0
 43
0.0
 44
0.0
 50
0.0
 51
0.0
 71
     0
 72
   100
 73
     1
 74
     3
 75
     0
 76
     0
 77
     0
 78
     0
281
     0
 65
     1
110
0.0
120
0.0
130
0.0
111
1.0
121
0.0
131
0.0
112
0.0
122
1.0
132
0.0
 79
     0
146
0.0
  0
ENDTAB
  0
TABLE
  2
LTYPE
  5
5
330
0
100
AcDbSymbolTable
 70
     1
  0
LTYPE
  5
14
330
5
100
AcDbSymbolTableRecord
100
AcDbLinetypeTableRecord
  2
ByBlock
 70
     0
  3

 72
    65
 73
     0
 40
0.0
  0
LTYPE
  5
15
330
5
100
AcDbSymbolTableRecord
100
AcDbLinetypeTableRecord
  2
ByLayer
 70
     0
  3

 72
    65
 73
     0
 40
0.0
  0
LTYPE
  5
16
330
5
100
AcDbSymbolTableRecord
100
AcDbLinetypeTableRecord
  2
Continuous
 70
     0
  3
Solid line
 72
    65
 73
     0
 40
0.0
  0
ENDTAB
  0
TABLE
  2
LAYER
  5
2
330
0
100
AcDbSymbolTable
 70
     2
  0
LAYER
  5
10
330
2
100
AcDbSymbolTableRecord
100
AcDbLayerTableRecord
  2
0
 70
     0
 62
     7
  6
Continuous
370
    -3
390
F
  0
LAYER
  5
3B
330
2
100
AcDbSymbolTableRecord
100
AcDbLayerTableRecord
  2
______
 70
     0
 62
     7
  6
Continuous
370
    -3
390
F
  0
ENDTAB
  0
TABLE
  2
STYLE
  5
3
330
0
100
AcDbSymbolTable
 70
     1
  0
STYLE
  5
11
330
3
100
AcDbSymbolTableRecord
100
AcDbTextStyleTableRecord
  2
Standard
 70
     0
 40
0.0
 41
1.0
 50
0.0
 71
     0
 42
0.2
  3
txt
  4

  0
ENDTAB
  0
TABLE
  2
VIEW
  5
6
330
0
100
AcDbSymbolTable
 70
     0
  0
ENDTAB
  0
TABLE
  2
UCS
  5
7
330
0
100
AcDbSymbolTable
 70
     0
  0
ENDTAB
  0
TABLE
  2
APPID
  5
9
330
0
100
AcDbSymbolTable
 70
     1
  0
APPID
  5
12
330
9
100
AcDbSymbolTableRecord
100
AcDbRegAppTableRecord
  2
ACAD
 70
     0
  0
ENDTAB
  0
TABLE
  2
DIMSTYLE
  5
A
330
0
100
AcDbSymbolTable
 70
     1
100
AcDbDimStyleTable
  0
DIMSTYLE
105
27
330
A
100
AcDbSymbolTableRecord
100
AcDbDimStyleTableRecord
  2
Standard
 70
     0
340
11
  0
ENDTAB
  0
TABLE
  2
BLOCK_RECORD
  5
1
330
0
100
AcDbSymbolTable
 70
     1
  0
BLOCK_RECORD
  5
1F
330
1
100
AcDbSymbolTableRecord
100
AcDbBlockTableRecord
  2
*Model_Space
340
22
  0
BLOCK_RECORD
  5
1B
330
1
100
AcDbSymbolTableRecord
100
AcDbBlockTableRecord
  2
*Paper_Space
340
1E
  0
BLOCK_RECORD
  5
23
330
1
100
AcDbSymbolTableRecord
100
AcDbBlockTableRecord
  2
*Paper_Space0
340
26
  0
ENDTAB
  0
ENDSEC
  0
SECTION
  2
BLOCKS
  0
BLOCK
  5
20
330
1F
100
AcDbEntity
  8
0
100
AcDbBlockBegin
  2
*Model_Space
 70
     0
 71
     0
 10
0.0
 20
0.0
 30
0.0
  3
*Model_Space
  1

  0
ENDBLK
  5
21
330
1F
100
AcDbEntity
  8
0
100
AcDbBlockEnd
  0
BLOCK
  5
1C
330
1B
100
AcDbEntity
 67
     1
  8
0
100
AcDbBlockBegin
  2
*Paper_Space
 70
     0
 71
     0
 10
0.0
 20
0.0
 30
0.0
  3
*Paper_Space
  1

  0
ENDBLK
  5
1D
330
1B
100
AcDbEntity
 67
     1
  8
0
100
AcDbBlockEnd
  0
BLOCK
  5
24
330
23
100
AcDbEntity
  8
0
100
AcDbBlockBegin
  2
*Paper_Space0
 70
     0
 71
     0
 10
0.0
 20
0.0
 30
0.0
  3
*Paper_Space0
  1

  0
ENDBLK
  5
25
330
23
100
AcDbEntity
  8
0
100
AcDbBlockEnd
  0
ENDSEC
  0
SECTION
  2
ENTITIES
  0
LINE
  5
3C
330
1F
100
AcDbEntity
  8
______
100
AcDbLine
 10
1.0
 20
100.0
 30
0.0
 11
7.0
 21
100.0
 31
0.0
  0
LINE
  5
3D
330
1F
100
AcDbEntity
  8
______
100
AcDbLine
 10
0.0
 20
105.0
 30
0.0
 11
0.0
 21
101.0
 31
0.0
  0
LINE
  5
3E
330
1F
100
AcDbEntity
  8
______
100
AcDbLine
 10
128.5
 20
106.0
 30
0.0
 11
0.9999999999999964
 21
106.0
 31
0.0
  0
LINE
  5
3F
330
1F
100
AcDbEntity
  8
______
100
AcDbLine
 10
129.5
 20
101.0
 30
0.0
 11
129.5
 21
105.0
 31
0.0
  0
LINE
  5
40
330
1F
100
AcDbEntity
  8
______
100
AcDbLine
 10
120.0
 20
100.0
 30
0.0
 11
128.5
 21
100.0
 31
0.0
  0
ARC
  5
41
330
1F
100
AcDbEntity
  8
______
100
AcDbCircle
 10
128.5
 20
101.0
 30
0.0
 40
1.0
100
AcDbArc
 50
270.0
 51
0.0
  0
ARC
  5
42
330
1F
100
AcDbEntity
  8
______
100
AcDbCircle
 10
128.5
 20
105.0
 30
0.0
 40
1.0
100
AcDbArc
 50
0.0
 51
90.0
  0
ARC
  5
43
330
1F
100
AcDbEntity
  8
______
100
AcDbCircle
 10
1.0
 20
101.0
 30
0.0
 40
1.0
100
AcDbArc
 50
180.0
 51
270.0
  0
ARC
  5
44
330
1F
100
AcDbEntity
  8
______
100
AcDbCircle
 10
1.0
 20
105.0
 30
0.0
 40
1.0
100
AcDbArc
 50
90.0
 51
180.0
  0
ARC
  5
45
330
1F
100
AcDbEntity
  8
______
100
AcDbCircle
 10
98.0
 20
59.0
 30
0.0
 40
11.67261752992875
100
AcDbArc
 50
260.1341930569148
 51
279.8658069430835
  0
LINE
  5
46
330
1F
100
AcDbEntity
  8
______
100
AcDbLine
 10
100.0
 20
47.5
 30
0.0
 11
100.0
 21
53.5
 31
0.0
  0
POLYLINE
  5
47
330
1F
100
AcDbEntity
  8
______
100
AcDb2dPolyline
 66
     1
 10
0.0
 20
0.0
 30
0.0
  0
VERTEX
  5
49
330
47
100
AcDbEntity
  8
______
100
AcDbVertex
100
AcDb2dVertex
 10
91.0
 20
45.5
 30
0.0
  0
VERTEX
  5
4A
330
47
100
AcDbEntity
  8
______
100
AcDbVertex
100
AcDb2dVertex
 10
96.0
 20
45.5
 30
0.0
  0
VERTEX
  5
4B
330
47
100
AcDbEntity
  8
______
100
AcDbVertex
100
AcDb2dVertex
 10
96.0
 20
47.5
 30
0.0
  0
SEQEND
  5
48
330
47
100
AcDbEntity
  8
______
  0
ARC
  5
4C
330
1F
100
AcDbEntity
  8
______
100
AcDbCircle
 10
91.0
 20
50.5
 30
0.0
 40
5.0
100
AcDbArc
 50
90.0
 51
270.0
  0
POLYLINE
  5
4D
330
1F
100
AcDbEntity
  8
______
100
AcDb2dPolyline
 66
     1
 10
0.0
 20
0.0
 30
0.0
  0
VERTEX
  5
4F
330
4D
100
AcDbEntity
  8
______
100
AcDbVertex
100
AcDb2dVertex
 10
96.0
 20
53.5
 30
0.0
  0
VERTEX
  5
50
330
4D
100
AcDbEntity
  8
______
100
AcDbVertex
100
AcDb2dVertex
 10
96.0
 20
55.5
 30
0.0
  0
VERTEX
  5
51
330
4D
100
AcDbEntity
  8
______
100
AcDbVertex
100
AcDb2dVertex
 10
91.0
 20
55.5
 30
0.0
  0
SEQEND
  5
4E
330
4D
100
AcDbEntity
  8
______
  0
ARC
  5
52
330
1F
100
AcDbEntity
  8
______
100
AcDbCircle
 10
98.0
 20
42.0
 30
0.0
 40
11.67261752992875
100
AcDbArc
 50
80.13419305691649
 51
99.86580694308522
  0
CIRCLE
  5
53
330
1F
100
AcDbEntity
  8
______
100
AcDbCircle
 10
91.0
 20
50.5
 30
0.0
 40
1.05
  0
ARC
  5
54
330
1F
100
AcDbEntity
  8
______
100
AcDbCircle
 10
66.0
 20
46.5
 30
0.0
 40
5.0
100
AcDbArc
 50
90.0
 51
270.0
  0
ARC
  5
55
330
1F
100
AcDbEntity
  8
______
100
AcDbCircle
 10
73.0
 20
55.0
 30
0.0
 40
11.67261752992875
100
AcDbArc
 50
260.1341930569148
 51
279.8658069430835
  0
POLYLINE
  5
56
330
1F
100
AcDbEntity
  8
______
100
AcDb2dPolyline
 66
     1
 10
0.0
 20
0.0
 30
0.0
  0
VERTEX
  5
58
330
56
100
AcDbEntity
  8
______
100
AcDbVertex
100
AcDb2dVertex
 10
71.0
 20
49.5
 30
0.0
  0
VERTEX
  5
59
330
56
100
AcDbEntity
  8
______
100
AcDbVertex
100
AcDb2dVertex
 10
71.0
 20
51.5
 30
0.0
  0
VERTEX
  5
5A
330
56
100
AcDbEntity
  8
______
100
AcDbVertex
100
AcDb2dVertex
 10
66.0
 20
51.5
 30
0.0
  0
SEQEND
  5
57
330
56
100
AcDbEntity
  8
______
  0
LINE
  5
5B
330
1F
100
AcDbEntity
  8
______
100
AcDbLine
 10
75.0
 20
43.5
 30
0.0
 11
75.0
 21
49.5
 31
0.0
  0
ARC
  5
5C
330
1F
100
AcDbEntity
  8
______
100
AcDbCircle
 10
73.0
 20
38.0
 30
0.0
 40
11.67261752992875
100
AcDbArc
 50
80.13419305691649
 51
99.86580694308522
  0
POLYLINE
  5
5D
330
1F
100
AcDbEntity
  8
______
100
AcDb2dPolyline
 66
     1
 10
0.0
 20
0.0
 30
0.0
  0
VERTEX
  5
5F
330
5D
100
AcDbEntity
  8
______
100
AcDbVertex
100
AcDb2dVertex
 10
66.0
 20
41.5
 30
0.0
  0
VERTEX
  5
60
330
5D
100
AcDbEntity
  8
______
100
AcDbVertex
100
AcDb2dVertex
 10
71.0
 20
41.5
 30
0.0
  0
VERTEX
  5
61
330
5D
100
AcDbEntity
  8
______
100
AcDbVertex
100
AcDb2dVertex
 10
71.0
 20
43.5
 30
0.0
  0
SEQEND
  5
5E
330
5D
100
AcDbEntity
  8
______
  0
CIRCLE
  5
62
330
1F
100
AcDbEntity
  8
______
100
AcDbCircle
 10
66.0
 20
46.5
 30
0.0
 40
1.05
  0
ARC
  5
63
330
1F
100
AcDbEntity
  8
______
100
AcDbCircle
 10
30.0
 20
60.0
 30
0.0
 40
5.0
100
AcDbArc
 50
90.0
 51
270.0
  0
ARC
  5
64
330
1F
100
AcDbEntity
  8
______
100
AcDbCircle
 10
37.0
 20
68.5
 30
0.0
 40
11.67261752992875
100
AcDbArc
 50
260.1341930569148
 51
279.8658069430835
  0
POLYLINE
  5
65
330
1F
100
AcDbEntity
  8
______
100
AcDb2dPolyline
 66
     1
 10
0.0
 20
0.0
 30
0.0
  0
VERTEX
  5
67
330
65
100
AcDbEntity
  8
______
100
AcDbVertex
100
AcDb2dVertex
 10
35.0
 20
63.0
 30
0.0
  0
VERTEX
  5
68
330
65
100
AcDbEntity
  8
______
100
AcDbVertex
100
AcDb2dVertex
 10
35.0
 20
65.0
 30
0.0
  0
VERTEX
  5
69
330
65
100
AcDbEntity
  8
______
100
AcDbVertex
100
AcDb2dVertex
 10
30.0
 20
65.0
 30
0.0
  0
SEQEND
  5
66
330
65
100
AcDbEntity
  8
______
  0
LINE
  5
6A
330
1F
100
AcDbEntity
  8
______
100
AcDbLine
 10
39.0
 20
57.0
 30
0.0
 11
39.0
 21
63.0
 31
0.0
  0
ARC
  5
6B
330
1F
100
AcDbEntity
  8
______
100
AcDbCircle
 10
37.0
 20
51.5
 30
0.0
 40
11.67261752992875
100
AcDbArc
 50
80.13419305691649
 51
99.86580694308522
  0
POLYLINE
  5
6C
330
1F
100
AcDbEntity
  8
______
100
AcDb2dPolyline
 66
     1
 10
0.0
 20
0.0
 30
0.0
  0
VERTEX
  5
6E
330
6C
100
AcDbEntity
  8
______
100
AcDbVertex
100
AcDb2dVertex
 10
30.0
 20
55.0
 30
0.0
  0
VERTEX
  5
6F
330
6C
100
AcDbEntity
  8
______
100
AcDbVertex
100
AcDb2dVertex
 10
35.0
 20
55.0
 30
0.0
  0
VERTEX
  5
70
330
6C
100
AcDbEntity
  8
______
100
AcDbVertex
100
AcDb2dVertex
 10
35.0
 20
57.0
 30
0.0
  0
SEQEND
  5
6D
330
6C
100
AcDbEntity
  8
______
  0
CIRCLE
  5
71
330
1F
100
AcDbEntity
  8
______
100
AcDbCircle
 10
30.0
 20
60.0
 30
0.0
 40
1.05
  0
CIRCLE
  5
72
330
1F
100
AcDbEntity
  8
______
100
AcDbCircle
 10
30.0
 20
72.0
 30
0.0
 40
1.05
  0
POLYLINE
  5
73
330
1F
100
AcDbEntity
  8
______
100
AcDb2dPolyline
 66
     1
 10
0.0
 20
0.0
 30
0.0
  0
VERTEX
  5
75
330
73
100
AcDbEntity
  8
______
100
AcDbVertex
100
AcDb2dVertex
 10
35.0
 20
75.0
 30
0.0
  0
VERTEX
  5
76
330
73
100
AcDbEntity
  8
______
100
AcDbVertex
100
AcDb2dVertex
 10
35.0
 20
77.0
 30
0.0
  0
VERTEX
  5
77
330
73
100
AcDbEntity
  8
______
100
AcDbVertex
100
AcDb2dVertex
 10
30.0
 20
77.0
 30
0.0
  0
SEQEND
  5
74
330
73
100
AcDbEntity
  8
______
  0
LINE
  5
78
330
1F
100
AcDbEntity
  8
______
100
AcDbLine
 10
39.0
 20
69.0
 30
0.0
 11
39.0
 21
75.0
 31
0.0
  0
ARC
  5
79
330
1F
100
AcDbEntity
  8
______
100
AcDbCircle
 10
37.0
 20
63.5
 30
0.0
 40
11.67261752992875
100
AcDbArc
 50
80.13419305691649
 51
99.86580694308522
  0
POLYLINE
  5
7A
330
1F
100
AcDbEntity
  8
______
100
AcDb2dPolyline
 66
     1
 10
0.0
 20
0.0
 30
0.0
  0
VERTEX
  5
7C
330
7A
100
AcDbEntity
  8
______
100
AcDbVertex
100
AcDb2dVertex
 10
30.0
 20
67.0
 30
0.0
  0
VERTEX
  5
7D
330
7A
100
AcDbEntity
  8
______
100
AcDbVertex
100
AcDb2dVertex
 10
35.0
 20
67.0
 30
0.0
  0
VERTEX
  5
7E
330
7A
100
AcDbEntity
  8
______
100
AcDbVertex
100
AcDb2dVertex
 10
35.0
 20
69.0
 30
0.0
  0
SEQEND
  5
7B
330
7A
100
AcDbEntity
  8
______
  0
ARC
  5
7F
330
1F
100
AcDbEntity
  8
______
100
AcDbCircle
 10
30.0
 20
72.0
 30
0.0
 40
5.0
100
AcDbArc
 50
90.0
 51
270.0
  0
ARC
  5
80
330
1F
100
AcDbEntity
  8
______
100
AcDbCircle
 10
37.0
 20
80.5
 30
0.0
 40
11.67261752992875
100
AcDbArc
 50
260.1341930569148
 51
279.8658069430835
  0
ARC
  5
81
330
1F
100
AcDbEntity
  8
______
100
AcDbCircle
 10
7.0
 20
46.0
 30
0.0
 40
5.0
100
AcDbArc
 50
270.0
 51
0.0
  0
LINE
  5
82
330
1F
100
AcDbEntity
  8
______
100
AcDbLine
 10
27.0
 20
52.0
 30
0.0
 11
36.0
 21
52.0
 31
0.0
  0
LINE
  5
83
330
1F
100
AcDbEntity
  8
______
100
AcDbLine
 10
24.0
 20
41.0
 30
0.0
 11
40.0
 21
41.0
 31
0.0
  0
ARC
  5
84
330
1F
100
AcDbEntity
  8
______
100
AcDbCircle
 10
7.0
 20
95.0
 30
0.0
 40
5.0
100
AcDbArc
 50
0.0
 51
90.0
  0
LINE
  5
85
330
1F
100
AcDbEntity
  8
______
100
AcDbLine
 10
57.0
 20
96.0
 30
0.0
 11
116.0
 21
96.00000000000001
 31
0.0
  0
ARC
  5
86
330
1F
100
AcDbEntity
  8
______
100
AcDbCircle
 10
120.0
 20
96.00000000000001
 30
0.0
 40
4.0
100
AcDbArc
 50
90.0
 51
180.0
  0
LINE
  5
87
330
1F
100
AcDbEntity
  8
______
100
AcDbLine
 10
40.0
 20
37.0
 30
0.0
 11
52.0
 21
37.0
 31
0.0
  0
LINE
  5
88
330
1F
100
AcDbEntity
  8
______
100
AcDbLine
 10
52.0
 20
41.0
 30
0.0
 11
57.0
 21
41.0
 31
0.0
  0
LINE
  5
89
330
1F
100
AcDbEntity
  8
______
100
AcDbLine
 10
36.0
 20
91.0
 30
0.0
 11
27.0
 21
91.0
 31
0.0
  0
ARC
  5
8A
330
1F
100
AcDbEntity
  8
______
100
AcDbCircle
 10
40.0
 20
39.0
 30
0.0
 40
12.16552506059644
100
AcDbArc
 50
350.5376777919743
 51
9.462322208025617
  0
LINE
  5
8B
330
1F
100
AcDbEntity
  8
______
100
AcDbLine
 10
12.0
 20
37.0
 30
0.0
 11
24.0
 21
37.0
 31
0.0
  0
ARC
  5
8C
330
1F
100
AcDbEntity
  8
______
100
AcDbCircle
 10
52.0
 20
39.0
 30
0.0
 40
12.16552506059644
100
AcDbArc
 50
170.5376777919744
 51
189.4623222080257
  0
LINE
  5
8D
330
1F
100
AcDbEntity
  8
______
100
AcDbLine
 10
7.0
 20
41.0
 30
0.0
 11
12.0
 21
41.0
 31
0.0
  0
ARC
  5
8E
330
1F
100
AcDbEntity
  8
______
100
AcDbCircle
 10
24.0
 20
39.0
 30
0.0
 40
12.16552506059644
100
AcDbArc
 50
170.5376777919744
 51
189.4623222080257
  0
ARC
  5
8F
330
1F
100
AcDbEntity
  8
______
100
AcDbCircle
 10
12.0
 20
39.0
 30
0.0
 40
12.16552506059644
100
AcDbArc
 50
350.5376777919743
 51
9.46232220802562
  0
LINE
  5
90
330
1F
100
AcDbEntity
  8
______
100
AcDbLine
 10
52.0
 20
91.0
 30
0.0
 11
52.0
 21
46.0
 31
0.0
  0
ARC
  5
91
330
1F
100
AcDbEntity
  8
______
100
AcDbCircle
 10
27.0
 20
57.0
 30
0.0
 40
5.0
100
AcDbArc
 50
180.0
 51
270.0
  0
ARC
  5
92
330
1F
100
AcDbEntity
  8
______
100
AcDbCircle
 10
36.0
 20
57.0
 30
0.0
 40
5.0
100
AcDbArc
 50
270.0
 51
0.0
  0
LINE
  5
93
330
1F
100
AcDbEntity
  8
______
100
AcDbLine
 10
12.0
 20
95.0
 30
0.0
 11
12.0
 21
46.0
 31
0.0
  0
ARC
  5
94
330
1F
100
AcDbEntity
  8
______
100
AcDbCircle
 10
57.0
 20
91.0
 30
0.0
 40
5.0
100
AcDbArc
 50
90.0
 51
180.0
  0
ARC
  5
95
330
1F
100
AcDbEntity
  8
______
100
AcDbCircle
 10
27.0
 20
86.0
 30
0.0
 40
5.0
100
AcDbArc
 50
90.0
 51
180.0
  0
LINE
  5
96
330
1F
100
AcDbEntity
  8
______
100
AcDbLine
 10
22.0
 20
86.0
 30
0.0
 11
22.0
 21
57.0
 31
0.0
  0
LINE
  5
97
330
1F
100
AcDbEntity
  8
______
100
AcDbLine
 10
41.0
 20
86.0
 30
0.0
 11
41.0
 21
57.0
 31
0.0
  0
ARC
  5
98
330
1F
100
AcDbEntity
  8
______
100
AcDbCircle
 10
36.0
 20
86.0
 30
0.0
 40
5.0
100
AcDbArc
 50
0.0
 51
90.0
  0
ARC
  5
99
330
1F
100
AcDbEntity
  8
______
100
AcDbCircle
 10
57.0
 20
46.0
 30
0.0
 40
5.0
100
AcDbArc
 50
180.0
 51
270.0
  0
CIRCLE
  5
9A
330
1F
100
AcDbEntity
  8
______
100
AcDbCircle
 10
30.0
 20
84.0
 30
0.0
 40
1.05
  0
POLYLINE
  5
9B
330
1F
100
AcDbEntity
  8
______
100
AcDb2dPolyline
 66
     1
 10
0.0
 20
0.0
 30
0.0
  0
VERTEX
  5
9D
330
9B
100
AcDbEntity
  8
______
100
AcDbVertex
100
AcDb2dVertex
 10
35.0
 20
87.0
 30
0.0
  0
VERTEX
  5
9E
330
9B
100
AcDbEntity
  8
______
100
AcDbVertex
100
AcDb2dVertex
 10
35.0
 20
89.0
 30
0.0
  0
VERTEX
  5
9F
330
9B
100
AcDbEntity
  8
______
100
AcDbVertex
100
AcDb2dVertex
 10
30.0
 20
89.0
 30
0.0
  0
SEQEND
  5
9C
330
9B
100
AcDbEntity
  8
______
  0
LINE
  5
A0
330
1F
100
AcDbEntity
  8
______
100
AcDbLine
 10
39.0
 20
81.0
 30
0.0
 11
39.0
 21
87.0
 31
0.0
  0
ARC
  5
A1
330
1F
100
AcDbEntity
  8
______
100
AcDbCircle
 10
37.0
 20
75.5
 30
0.0
 40
11.67261752992875
100
AcDbArc
 50
80.13419305691649
 51
99.86580694308522
  0
POLYLINE
  5
A2
330
1F
100
AcDbEntity
  8
______
100
AcDb2dPolyline
 66
     1
 10
0.0
 20
0.0
 30
0.0
  0
VERTEX
  5
A4
330
A2
100
AcDbEntity
  8
______
100
AcDbVertex
100
AcDb2dVertex
 10
30.0
 20
79.0
 30
0.0
  0
VERTEX
  5
A5
330
A2
100
AcDbEntity
  8
______
100
AcDbVertex
100
AcDb2dVertex
 10
35.0
 20
79.0
 30
0.0
  0
VERTEX
  5
A6
330
A2
100
AcDbEntity
  8
______
100
AcDbVertex
100
AcDb2dVertex
 10
35.0
 20
81.0
 30
0.0
  0
SEQEND
  5
A3
330
A2
100
AcDbEntity
  8
______
  0
ARC
  5
A7
330
1F
100
AcDbEntity
  8
______
100
AcDbCircle
 10
30.0
 20
84.0
 30
0.0
 40
5.0
100
AcDbArc
 50
90.0
 51
270.0
  0
ARC
  5
A8
330
1F
100
AcDbEntity
  8
______
100
AcDbCircle
 10
37.0
 20
92.5
 30
0.0
 40
11.67261752992875
100
AcDbArc
 50
260.1341930569148
 51
279.8658069430835
  0
ARC
  5
A9
330
1F
100
AcDbEntity
  8
______
100
AcDbCircle
 10
165.4602836048269
 20
84.06967364878534
 30
0.0
 40
11.11844030725601
100
AcDbArc
 50
158.2571378019514
 51
215.9928948958494
  0
CIRCLE
  5
AA
330
1F
100
AcDbEntity
  8
______
100
AcDbCircle
 10
160.0
 20
74.0
 30
0.0
 40
20.0
  0
ARC
  5
AB
330
1F
100
AcDbEntity
  8
______
100
AcDbCircle
 10
160.3947911073451
 20
61.3998933266279
 30
0.0
 40
11.65971761223356
100
AcDbArc
 50
15.5435554411802
 51
68.43086955045487
  0
ARC
  5
AC
330
1F
100
AcDbEntity
  8
______
100
AcDbCircle
 10
163.2593309572168
 20
63.01866191443361
 30
0.0
 40
11.11844030725601
100
AcDbArc
 50
23.25713780195305
 51
80.99289489585097
  0
ARC
  5
AD
330
1F
100
AcDbEntity
  8
______
100
AcDbCircle
 10
154.5397163951731
 20
63.93032635121466
 30
0.0
 40
11.11844030725601
100
AcDbArc
 50
338.2571378019527
 51
35.9928948958507
  0
ARC
  5
AE
330
1F
100
AcDbEntity
  8
______
100
AcDbCircle
 10
160.0
 20
74.0
 30
0.0
 40
15.0
100
AcDbArc
 50
140.8236413050874
 51
153.9338443579666
  0
ARC
  5
AF
330
1F
100
AcDbEntity
  8
______
100
AcDbCircle
 10
156.7406690427832
 20
84.98133808556639
 30
0.0
 40
11.11844030725601
100
AcDbArc
 50
203.2571378019531
 51
260.992894895851
  0
CIRCLE
  5
B0
330
1F
100
AcDbEntity
  8
______
100
AcDbCircle
 10
160.0
 20
74.0
 30
0.0
 40
0.95
  0
ARC
  5
B1
330
1F
100
AcDbEntity
  8
______
100
AcDbCircle
 10
168.6304614032594
 20
83.18878034157115
 30
0.0
 40
11.65971761223356
100
AcDbArc
 50
150.5435554411787
 51
203.4308695504535
  0
ARC
  5
B2
330
1F
100
AcDbEntity
  8
______
100
AcDbCircle
 10
160.0
 20
74.0
 30
0.0
 40
5.0
100
AcDbArc
 50
204.4286900060422
 51
225.0
  0
ARC
  5
B3
330
1F
100
AcDbEntity
  8
______
100
AcDbCircle
 10
160.0
 20
74.0
 30
0.0
 40
15.0
100
AcDbArc
 50
185.8236413050872
 51
198.9338443579664
  0
ARC
  5
B4
330
1F
100
AcDbEntity
  8
______
100
AcDbCircle
 10
170.0696736487853
 20
68.53971639517314
 30
0.0
 40
11.11844030725601
100
AcDbArc
 50
68.25713780195282
 51
125.9928948958508
  0
ARC
  5
B5
330
1F
100
AcDbEntity
  8
______
100
AcDbCircle
 10
170.9813380855664
 20
77.2593309572168
 30
0.0
 40
11.11844030725601
100
AcDbArc
 50
113.257137801953
 51
170.992894895851
  0
ARC
  5
B6
330
1F
100
AcDbEntity
  8
______
100
AcDbCircle
 10
150.8112196584289
 20
82.63046140325943
 30
0.0
 40
11.65971761223356
100
AcDbArc
 50
240.543555441178
 51
293.4308695504526
  0
ARC
  5
B7
330
1F
100
AcDbEntity
  8
______
100
AcDbCircle
 10
151.3695385967406
 20
64.81121965842885
 30
0.0
 40
11.65971761223356
100
AcDbArc
 50
330.5435554411781
 51
23.43086955045272
  0
ARC
  5
B8
330
1F
100
AcDbEntity
  8
______
100
AcDbCircle
 10
159.6052088926549
 20
86.60010667337212
 30
0.0
 40
11.65971761223356
100
AcDbArc
 50
195.54355544118
 51
248.4308695504547
  0
ARC
  5
B9
330
1F
100
AcDbEntity
  8
______
100
AcDbCircle
 10
160.0
 20
74.0
 30
0.0
 40
5.0
100
AcDbArc
 50
159.4286900060425
 51
180.0
  0
ARC
  5
BA
330
1F
100
AcDbEntity
  8
______
100
AcDbCircle
 10
160.0
 20
74.0
 30
0.0
 40
15.0
100
AcDbArc
 50
95.82364130508779
 51
108.9338443579668
  0
ARC
  5
BB
330
1F
100
AcDbEntity
  8
______
100
AcDbCircle
 10
160.0
 20
74.0
 30
0.0
 40
5.0
100
AcDbArc
 50
69.42869000604217
 51
90.0
  0
ARC
  5
BC
330
1F
100
AcDbEntity
  8
______
100
AcDbCircle
 10
160.0
 20
74.0
 30
0.0
 40
5.0
100
AcDbArc
 50
249.4286900060425
 51
269.9999999999997
  0
ARC
  5
BD
330
1F
100
AcDbEntity
  8
______
100
AcDbCircle
 10
172.6001066733721
 20
74.3947911073451
 30
0.0
 40
11.65971761223356
100
AcDbArc
 50
105.5435554411803
 51
158.430869550455
  0
ARC
  5
BE
330
1F
100
AcDbEntity
  8
______
100
AcDbCircle
 10
149.9303263512147
 20
79.46028360482688
 30
0.0
 40
11.11844030725601
100
AcDbArc
 50
248.2571378019528
 51
305.9928948958507
  0
ARC
  5
BF
330
1F
100
AcDbEntity
  8
______
100
AcDbCircle
 10
160.0
 20
74.0
 30
0.0
 40
15.0
100
AcDbArc
 50
230.8236413050875
 51
243.9338443579666
  0
ARC
  5
C0
330
1F
100
AcDbEntity
  8
______
100
AcDbCircle
 10
160.0
 20
74.0
 30
0.0
 40
15.0
100
AcDbArc
 50
320.8236413050875
 51
333.9338443579664
  0
ARC
  5
C1
330
1F
100
AcDbEntity
  8
______
100
AcDbCircle
 10
169.1887803415711
 20
65.36953859674058
 30
0.0
 40
11.65971761223356
100
AcDbArc
 50
60.54355544117799
 51
113.4308695504526
  0
ARC
  5
C2
330
1F
100
AcDbEntity
  8
______
100
AcDbCircle
 10
160.0
 20
74.0
 30
0.0
 40
15.0
100
AcDbArc
 50
275.8236413050874
 51
288.9338443579666
  0
ARC
  5
C3
330
1F
100
AcDbEntity
  8
______
100
AcDbCircle
 10
147.3998933266279
 20
73.6052088926549
 30
0.0
 40
11.65971761223356
100
AcDbArc
 50
285.5435554411803
 51
338.430869550455
  0
ARC
  5
C4
330
1F
100
AcDbEntity
  8
______
100
AcDbCircle
 10
160.0
 20
74.0
 30
0.0
 40
5.0
100
AcDbArc
 50
294.428690006042
 51
315.0
  0
ARC
  5
C5
330
1F
100
AcDbEntity
  8
______
100
AcDbCircle
 10
160.0
 20
74.0
 30
0.0
 40
5.0
100
AcDbArc
 50
339.4286900060424
 51
0.0
  0
ARC
  5
C6
330
1F
100
AcDbEntity
  8
______
100
AcDbCircle
 10
149.0186619144336
 20
70.7406690427832
 30
0.0
 40
11.11844030725601
100
AcDbArc
 50
293.257137801953
 51
350.9928948958511
  0
ARC
  5
C7
330
1F
100
AcDbEntity
  8
______
100
AcDbCircle
 10
160.0
 20
74.0
 30
0.0
 40
5.0
100
AcDbArc
 50
24.42869000604268
 51
45.0
  0
ARC
  5
C8
330
1F
100
AcDbEntity
  8
______
100
AcDbCircle
 10
160.0
 20
74.0
 30
0.0
 40
15.0
100
AcDbArc
 50
50.82364130508751
 51
63.93384435796644
  0
ARC
  5
C9
330
1F
100
AcDbEntity
  8
______
100
AcDbCircle
 10
160.0
 20
74.0
 30
0.0
 40
5.0
100
AcDbArc
 50
114.4286900060424
 51
135.0
  0
ARC
  5
CA
330
1F
100
AcDbEntity
  8
______
100
AcDbCircle
 10
160.0
 20
74.0
 30
0.0
 40
15.0
100
AcDbArc
 50
5.823641305087403
 51
18.93384435796645
  0
ARC
  5
CB
330
1F
100
AcDbEntity
  8
______
100
AcDbCircle
 10
117.0
 20
74.0
 30
0.0
 40
5.0
100
AcDbArc
 50
159.4286900060425
 51
180.0
  0
ARC
  5
CC
330
1F
100
AcDbEntity
  8
______
100
AcDbCircle
 10
129.6001066733721
 20
74.3947911073451
 30
0.0
 40
11.65971761223356
100
AcDbArc
 50
105.5435554411803
 51
158.430869550455
  0
ARC
  5
CD
330
1F
100
AcDbEntity
  8
______
100
AcDbCircle
 10
117.0
 20
74.0
 30
0.0
 40
15.0
100
AcDbArc
 50
5.82364130508751
 51
18.93384435796659
  0
ARC
  5
CE
330
1F
100
AcDbEntity
  8
______
100
AcDbCircle
 10
117.0
 20
74.0
 30
0.0
 40
5.0
100
AcDbArc
 50
294.4286900060421
 51
315.0
  0
ARC
  5
CF
330
1F
100
AcDbEntity
  8
______
100
AcDbCircle
 10
117.0
 20
74.0
 30
0.0
 40
15.0
100
AcDbArc
 50
230.8236413050876
 51
243.9338443579666
  0
ARC
  5
D0
330
1F
100
AcDbEntity
  8
______
100
AcDbCircle
 10
117.3947911073451
 20
61.3998933266279
 30
0.0
 40
11.65971761223356
100
AcDbArc
 50
15.5435554411802
 51
68.43086955045487
  0
ARC
  5
D1
330
1F
100
AcDbEntity
  8
______
100
AcDbCircle
 10
117.0
 20
74.0
 30
0.0
 40
15.0
100
AcDbArc
 50
140.8236413050875
 51
153.9338443579667
  0
ARC
  5
D2
330
1F
100
AcDbEntity
  8
______
100
AcDbCircle
 10
117.0
 20
74.0
 30
0.0
 40
5.0
100
AcDbArc
 50
204.4286900060422
 51
225.0
  0
ARC
  5
D3
330
1F
100
AcDbEntity
  8
______
100
AcDbCircle
 10
117.0
 20
74.0
 30
0.0
 40
15.0
100
AcDbArc
 50
275.8236413050875
 51
288.9338443579666
  0
CIRCLE
  5
D4
330
1F
100
AcDbEntity
  8
______
100
AcDbCircle
 10
117.0
 20
74.0
 30
0.0
 40
20.0
  0
ARC
  5
D5
330
1F
100
AcDbEntity
  8
______
100
AcDbCircle
 10
113.7406690427832
 20
84.98133808556639
 30
0.0
 40
11.11844030725601
100
AcDbArc
 50
203.257137801953
 51
260.992894895851
  0
ARC
  5
D6
330
1F
100
AcDbEntity
  8
______
100
AcDbCircle
 10
117.0
 20
74.0
 30
0.0
 40
5.0
100
AcDbArc
 50
24.42869000604275
 51
45.0
  0
ARC
  5
D7
330
1F
100
AcDbEntity
  8
______
100
AcDbCircle
 10
117.0
 20
74.0
 30
0.0
 40
5.0
100
AcDbArc
 50
339.4286900060423
 51
0.0
  0
ARC
  5
D8
330
1F
100
AcDbEntity
  8
______
100
AcDbCircle
 10
108.3695385967406
 20
64.81121965842885
 30
0.0
 40
11.65971761223356
100
AcDbArc
 50
330.5435554411781
 51
23.43086955045269
  0
ARC
  5
D9
330
1F
100
AcDbEntity
  8
______
100
AcDbCircle
 10
106.0186619144336
 20
70.7406690427832
 30
0.0
 40
11.11844030725601
100
AcDbArc
 50
293.257137801953
 51
350.9928948958511
  0
ARC
  5
DA
330
1F
100
AcDbEntity
  8
______
100
AcDbCircle
 10
126.1887803415711
 20
65.36953859674058
 30
0.0
 40
11.65971761223356
100
AcDbArc
 50
60.5435554411783
 51
113.430869550453
  0
ARC
  5
DB
330
1F
100
AcDbEntity
  8
______
100
AcDbCircle
 10
117.0
 20
74.0
 30
0.0
 40
5.0
100
AcDbArc
 50
114.4286900060425
 51
135.0
  0
ARC
  5
DC
330
1F
100
AcDbEntity
  8
______
100
AcDbCircle
 10
106.9303263512147
 20
79.46028360482688
 30
0.0
 40
11.11844030725601
100
AcDbArc
 50
248.2571378019527
 51
305.9928948958507
  0
ARC
  5
DD
330
1F
100
AcDbEntity
  8
______
100
AcDbCircle
 10
117.0
 20
74.0
 30
0.0
 40
15.0
100
AcDbArc
 50
95.82364130508785
 51
108.9338443579668
  0
ARC
  5
DE
330
1F
100
AcDbEntity
  8
______
100
AcDbCircle
 10
120.2593309572168
 20
63.01866191443361
 30
0.0
 40
11.11844030725601
100
AcDbArc
 50
23.25713780195305
 51
80.99289489585102
  0
ARC
  5
DF
330
1F
100
AcDbEntity
  8
______
100
AcDbCircle
 10
117.0
 20
74.0
 30
0.0
 40
15.0
100
AcDbArc
 50
185.8236413050873
 51
198.9338443579665
  0
ARC
  5
E0
330
1F
100
AcDbEntity
  8
______
100
AcDbCircle
 10
122.4602836048269
 20
84.06967364878534
 30
0.0
 40
11.11844030725601
100
AcDbArc
 50
158.2571378019532
 51
215.9928948958512
  0
ARC
  5
E1
330
1F
100
AcDbEntity
  8
______
100
AcDbCircle
 10
125.6304614032594
 20
83.18878034157115
 30
0.0
 40
11.65971761223356
100
AcDbArc
 50
150.543555441178
 51
203.4308695504527
  0
ARC
  5
E2
330
1F
100
AcDbEntity
  8
______
100
AcDbCircle
 10
107.8112196584289
 20
82.63046140325943
 30
0.0
 40
11.65971761223356
100
AcDbArc
 50
240.543555441178
 51
293.4308695504527
  0
ARC
  5
E3
330
1F
100
AcDbEntity
  8
______
100
AcDbCircle
 10
127.0696736487853
 20
68.53971639517314
 30
0.0
 40
11.11844030725601
100
AcDbArc
 50
68.2571378019527
 51
125.9928948958508
  0
ARC
  5
E4
330
1F
100
AcDbEntity
  8
______
100
AcDbCircle
 10
111.5397163951731
 20
63.93032635121466
 30
0.0
 40
11.11844030725601
100
AcDbArc
 50
338.2571378019527
 51
35.99289489585075
  0
ARC
  5
E5
330
1F
100
AcDbEntity
  8
______
100
AcDbCircle
 10
117.0
 20
74.0
 30
0.0
 40
15.0
100
AcDbArc
 50
50.82364130508758
 51
63.93384435796652
  0
ARC
  5
E6
330
1F
100
AcDbEntity
  8
______
100
AcDbCircle
 10
117.0
 20
74.0
 30
0.0
 40
5.0
100
AcDbArc
 50
249.4286900060425
 51
269.9999999999998
  0
ARC
  5
E7
330
1F
100
AcDbEntity
  8
______
100
AcDbCircle
 10
104.3998933266279
 20
73.6052088926549
 30
0.0
 40
11.65971761223356
100
AcDbArc
 50
285.54355544118
 51
338.4308695504547
  0
ARC
  5
E8
330
1F
100
AcDbEntity
  8
______
100
AcDbCircle
 10
117.0
 20
74.0
 30
0.0
 40
5.0
100
AcDbArc
 50
69.42869000604217
 51
90.0
  0
ARC
  5
E9
330
1F
100
AcDbEntity
  8
______
100
AcDbCircle
 10
127.9813380855664
 20
77.2593309572168
 30
0.0
 40
11.11844030725601
100
AcDbArc
 50
113.257137801953
 51
170.992894895851
  0
ARC
  5
EA
330
1F
100
AcDbEntity
  8
______
100
AcDbCircle
 10
116.6052088926549
 20
86.60010667337212
 30
0.0
 40
11.65971761223356
100
AcDbArc
 50
195.54355544118
 51
248.4308695504547
  0
ARC
  5
EB
330
1F
100
AcDbEntity
  8
______
100
AcDbCircle
 10
117.0
 20
74.0
 30
0.0
 40
15.0
100
AcDbArc
 50
320.8236413050876
 51
333.9338443579665
  0
CIRCLE
  5
EC
330
1F
100
AcDbEntity
  8
______
100
AcDbCircle
 10
117.0
 20
74.0
 30
0.0
 40
0.95
  0
ARC
  5
ED
330
1F
100
AcDbEntity
  8
______
100
AcDbCircle
 10
61.3998933266279
 20
74.1052088926549
 30
0.0
 40
11.65971761223356
100
AcDbArc
 50
285.54355544118
 51
338.4308695504547
  0
ARC
  5
EE
330
1F
100
AcDbEntity
  8
______
100
AcDbCircle
 10
63.93032635121466
 20
79.96028360482688
 30
0.0
 40
11.11844030725601
100
AcDbArc
 50
248.2571378019527
 51
305.9928948958507
  0
ARC
  5
EF
330
1F
100
AcDbEntity
  8
______
100
AcDbCircle
 10
74.0
 20
74.5
 30
0.0
 40
15.0
100
AcDbArc
 50
185.8236413050873
 51
198.9338443579665
  0
ARC
  5
F0
330
1F
100
AcDbEntity
  8
______
100
AcDbCircle
 10
70.7406690427832
 20
85.48133808556639
 30
0.0
 40
11.11844030725601
100
AcDbArc
 50
203.257137801953
 51
260.992894895851
  0
ARC
  5
F1
330
1F
100
AcDbEntity
  8
______
100
AcDbCircle
 10
86.60010667337212
 20
74.8947911073451
 30
0.0
 40
11.65971761223356
100
AcDbArc
 50
105.54355544118
 51
158.4308695504547
  0
ARC
  5
F2
330
1F
100
AcDbEntity
  8
______
100
AcDbCircle
 10
74.3947911073451
 20
61.8998933266279
 30
0.0
 40
11.65971761223356
100
AcDbArc
 50
15.5435554411802
 51
68.43086955045487
  0
CIRCLE
  5
F3
330
1F
100
AcDbEntity
  8
______
100
AcDbCircle
 10
74.0
 20
74.5
 30
0.0
 40
20.0
  0
ARC
  5
F4
330
1F
100
AcDbEntity
  8
______
100
AcDbCircle
 10
74.0
 20
74.5
 30
0.0
 40
15.0
100
AcDbArc
 50
230.8236413050876
 51
243.9338443579666
  0
ARC
  5
F5
330
1F
100
AcDbEntity
  8
______
100
AcDbCircle
 10
74.0
 20
74.5
 30
0.0
 40
15.0
100
AcDbArc
 50
5.82364130508751
 51
18.93384435796656
  0
ARC
  5
F6
330
1F
100
AcDbEntity
  8
______
100
AcDbCircle
 10
74.0
 20
74.5
 30
0.0
 40
5.0
100
AcDbArc
 50
114.4286900060425
 51
135.0
  0
ARC
  5
F7
330
1F
100
AcDbEntity
  8
______
100
AcDbCircle
 10
64.81121965842885
 20
83.13046140325943
 30
0.0
 40
11.65971761223356
100
AcDbArc
 50
240.5435554411791
 51
293.4308695504538
  0
ARC
  5
F8
330
1F
100
AcDbEntity
  8
______
100
AcDbCircle
 10
65.36953859674057
 20
65.31121965842885
 30
0.0
 40
11.65971761223356
100
AcDbArc
 50
330.5435554411791
 51
23.43086955045378
  0
ARC
  5
F9
330
1F
100
AcDbEntity
  8
______
100
AcDbCircle
 10
74.0
 20
74.5
 30
0.0
 40
15.0
100
AcDbArc
 50
320.8236413050876
 51
333.9338443579666
  0
ARC
  5
FA
330
1F
100
AcDbEntity
  8
______
100
AcDbCircle
 10
84.98133808556639
 20
77.7593309572168
 30
0.0
 40
11.11844030725601
100
AcDbArc
 50
113.257137801953
 51
170.992894895851
  0
ARC
  5
FB
330
1F
100
AcDbEntity
  8
______
100
AcDbCircle
 10
74.0
 20
74.5
 30
0.0
 40
5.0
100
AcDbArc
 50
24.42869000604275
 51
45.0
  0
ARC
  5
FC
330
1F
100
AcDbEntity
  8
______
100
AcDbCircle
 10
83.18878034157115
 20
65.86953859674058
 30
0.0
 40
11.65971761223356
100
AcDbArc
 50
60.54355544117799
 51
113.4308695504527
  0
ARC
  5
FD
330
1F
100
AcDbEntity
  8
______
100
AcDbCircle
 10
74.0
 20
74.5
 30
0.0
 40
5.0
100
AcDbArc
 50
69.42869000604217
 51
90.0
  0
ARC
  5
FE
330
1F
100
AcDbEntity
  8
______
100
AcDbCircle
 10
73.6052088926549
 20
87.10010667337212
 30
0.0
 40
11.65971761223356
100
AcDbArc
 50
195.54355544118
 51
248.4308695504547
  0
ARC
  5
FF
330
1F
100
AcDbEntity
  8
______
100
AcDbCircle
 10
74.0
 20
74.5
 30
0.0
 40
15.0
100
AcDbArc
 50
95.82364130508785
 51
108.9338443579668
  0
ARC
  5
100
330
1F
100
AcDbEntity
  8
______
100
AcDbCircle
 10
82.6304614032594
 20
83.68878034157115
 30
0.0
 40
11.65971761223356
100
AcDbArc
 50
150.543555441178
 51
203.4308695504527
  0
ARC
  5
101
330
1F
100
AcDbEntity
  8
______
100
AcDbCircle
 10
74.0
 20
74.5
 30
0.0
 40
15.0
100
AcDbArc
 50
140.8236413050875
 51
153.9338443579667
  0
ARC
  5
102
330
1F
100
AcDbEntity
  8
______
100
AcDbCircle
 10
63.01866191443361
 20
71.2406690427832
 30
0.0
 40
11.11844030725601
100
AcDbArc
 50
293.257137801953
 51
350.9928948958511
  0
ARC
  5
103
330
1F
100
AcDbEntity
  8
______
100
AcDbCircle
 10
74.0
 20
74.5
 30
0.0
 40
5.0
100
AcDbArc
 50
159.4286900060425
 51
180.0
  0
ARC
  5
104
330
1F
100
AcDbEntity
  8
______
100
AcDbCircle
 10
74.0
 20
74.5
 30
0.0
 40
5.0
100
AcDbArc
 50
294.4286900060421
 51
315.0
  0
ARC
  5
105
330
1F
100
AcDbEntity
  8
______
100
AcDbCircle
 10
74.0
 20
74.5
 30
0.0
 40
15.0
100
AcDbArc
 50
275.8236413050875
 51
288.9338443579666
  0
ARC
  5
106
330
1F
100
AcDbEntity
  8
______
100
AcDbCircle
 10
74.0
 20
74.5
 30
0.0
 40
5.0
100
AcDbArc
 50
204.4286900060422
 51
225.0
  0
ARC
  5
107
330
1F
100
AcDbEntity
  8
______
100
AcDbCircle
 10
74.0
 20
74.5
 30
0.0
 40
15.0
100
AcDbArc
 50
50.82364130508758
 51
63.93384435796652
  0
ARC
  5
108
330
1F
100
AcDbEntity
  8
______
100
AcDbCircle
 10
79.46028360482686
 20
84.56967364878534
 30
0.0
 40
11.11844030725601
100
AcDbArc
 50
158.2571378019532
 51
215.9928948958512
  0
ARC
  5
109
330
1F
100
AcDbEntity
  8
______
100
AcDbCircle
 10
84.06967364878534
 20
69.03971639517314
 30
0.0
 40
11.11844030725601
100
AcDbArc
 50
68.2571378019527
 51
125.9928948958508
  0
ARC
  5
10A
330
1F
100
AcDbEntity
  8
______
100
AcDbCircle
 10
68.53971639517313
 20
64.43032635121466
 30
0.0
 40
11.11844030725601
100
AcDbArc
 50
338.2571378019532
 51
35.99289489585122
  0
ARC
  5
10B
330
1F
100
AcDbEntity
  8
______
100
AcDbCircle
 10
74.0
 20
74.5
 30
0.0
 40
5.0
100
AcDbArc
 50
339.4286900060423
 51
0.0
  0
CIRCLE
  5
10C
330
1F
100
AcDbEntity
  8
______
100
AcDbCircle
 10
74.0
 20
74.5
 30
0.0
 40
0.95
  0
ARC
  5
10D
330
1F
100
AcDbEntity
  8
______
100
AcDbCircle
 10
74.0
 20
74.5
 30
0.0
 40
5.0
100
AcDbArc
 50
249.4286900060425
 51
269.9999999999998
  0
ARC
  5
10E
330
1F
100
AcDbEntity
  8
______
100
AcDbCircle
 10
77.2593309572168
 20
63.51866191443361
 30
0.0
 40
11.11844030725601
100
AcDbArc
 50
23.25713780195302
 51
80.99289489585102
  0
POLYLINE
  5
10F
330
1F
100
AcDbEntity
  8
______
100
AcDb2dPolyline
 66
     1
 10
0.0
 20
0.0
 30
0.0
210
0.0
220
0.0
230
-1.0
  0
VERTEX
  5
111
330
10F
100
AcDbEntity
  8
______
100
AcDbVertex
100
AcDb2dVertex
 10
-187.0
 20
-20.5
 30
0.0
  0
VERTEX
  5
112
330
10F
100
AcDbEntity
  8
______
100
AcDbVertex
100
AcDb2dVertex
 10
-140.0
 20
-20.5
 30
0.0
  0
VERTEX
  5
113
330
10F
100
AcDbEntity
  8
______
100
AcDbVertex
100
AcDb2dVertex
 10
-50.0
 20
-5.5
 30
0.0
  0
VERTEX
  5
114
330
10F
100
AcDbEntity
  8
______
100
AcDbVertex
100
AcDb2dVertex
 10
-3.000000000000003
 20
-5.5
 30
0.0
  0
SEQEND
  5
110
330
10F
100
AcDbEntity
  8
______
  0
ARC
  5
115
330
1F
100
AcDbEntity
  8
______
100
AcDbCircle
 10
187.0
 20
46.5
 30
0.0
 40
3.0
100
AcDbArc
 50
0.0
 51
90.0
  0
LINE
  5
116
330
1F
100
AcDbEntity
  8
______
100
AcDbLine
 10
0.0
 20
-2.5
 30
0.0
 11
0.0
 21
31.5
 31
0.0
  0
LINE
  5
117
330
1F
100
AcDbEntity
  8
______
100
AcDbLine
 10
190.0
 20
46.5
 30
0.0
 11
190.0
 21
-17.5
 31
0.0
  0
POLYLINE
  5
118
330
1F
100
AcDbEntity
  8
______
100
AcDb2dPolyline
 66
     1
 10
0.0
 20
0.0
 30
0.0
  0
VERTEX
  5
11A
330
118
100
AcDbEntity
  8
______
100
AcDbVertex
100
AcDb2dVertex
 10
3.0
 20
34.5
 30
0.0
  0
VERTEX
  5
11B
330
118
100
AcDbEntity
  8
______
100
AcDbVertex
100
AcDb2dVertex
 10
50.0
 20
34.5
 30
0.0
  0
VERTEX
  5
11C
330
118
100
AcDbEntity
  8
______
100
AcDbVertex
100
AcDb2dVertex
 10
140.0
 20
49.5
 30
0.0
  0
VERTEX
  5
11D
330
118
100
AcDbEntity
  8
______
100
AcDbVertex
100
AcDb2dVertex
 10
187.0
 20
49.5
 30
0.0
  0
SEQEND
  5
119
330
118
100
AcDbEntity
  8
______
  0
POLYLINE
  5
11E
330
1F
100
AcDbEntity
  8
______
100
AcDb2dPolyline
 66
     1
 10
0.0
 20
0.0
 30
0.0
  0
VERTEX
  5
120
330
11E
100
AcDbEntity
  8
______
100
AcDbVertex
100
AcDb2dVertex
 10
70.0
 20
12.6
 30
0.0
  0
VERTEX
  5
121
330
11E
100
AcDbEntity
  8
______
100
AcDbVertex
100
AcDb2dVertex
 10
82.0
 20
12.6
 30
0.0
  0
VERTEX
  5
122
330
11E
100
AcDbEntity
  8
______
100
AcDbVertex
100
AcDb2dVertex
 10
82.0
 20
16.4
 30
0.0
  0
VERTEX
  5
123
330
11E
100
AcDbEntity
  8
______
100
AcDbVertex
100
AcDb2dVertex
 10
70.0
 20
16.4
 30
0.0
  0
VERTEX
  5
124
330
11E
100
AcDbEntity
  8
______
100
AcDbVertex
100
AcDb2dVertex
 10
70.0
 20
12.6
 30
0.0
  0
SEQEND
  5
11F
330
11E
100
AcDbEntity
  8
______
  0
POLYLINE
  5
125
330
1F
100
AcDbEntity
  8
______
100
AcDb2dPolyline
 66
     1
 10
0.0
 20
0.0
 30
0.0
  0
VERTEX
  5
127
330
125
100
AcDbEntity
  8
______
100
AcDbVertex
100
AcDb2dVertex
 10
98.0
 20
12.6
 30
0.0
  0
VERTEX
  5
128
330
125
100
AcDbEntity
  8
______
100
AcDbVertex
100
AcDb2dVertex
 10
110.0
 20
12.6
 30
0.0
  0
VERTEX
  5
129
330
125
100
AcDbEntity
  8
______
100
AcDbVertex
100
AcDb2dVertex
 10
110.0
 20
16.4
 30
0.0
  0
VERTEX
  5
12A
330
125
100
AcDbEntity
  8
______
100
AcDbVertex
100
AcDb2dVertex
 10
98.0
 20
16.4
 30
0.0
  0
VERTEX
  5
12B
330
125
100
AcDbEntity
  8
______
100
AcDbVertex
100
AcDb2dVertex
 10
98.0
 20
12.6
 30
0.0
  0
SEQEND
  5
126
330
125
100
AcDbEntity
  8
______
  0
POLYLINE
  5
12C
330
1F
100
AcDbEntity
  8
______
100
AcDb2dPolyline
 66
     1
 10
0.0
 20
0.0
 30
0.0
  0
VERTEX
  5
12E
330
12C
100
AcDbEntity
  8
______
100
AcDbVertex
100
AcDb2dVertex
 10
7.0
 20
-2.5
 30
0.0
  0
VERTEX
  5
12F
330
12C
100
AcDbEntity
  8
______
100
AcDbVertex
100
AcDb2dVertex
 10
13.0
 20
-2.5
 30
0.0
  0
VERTEX
  5
130
330
12C
100
AcDbEntity
  8
______
100
AcDbVertex
100
AcDb2dVertex
 10
13.0
 20
1.299999999999997
 30
0.0
  0
VERTEX
  5
131
330
12C
100
AcDbEntity
  8
______
100
AcDbVertex
100
AcDb2dVertex
 10
7.0
 20
1.299999999999997
 30
0.0
  0
VERTEX
  5
132
330
12C
100
AcDbEntity
  8
______
100
AcDbVertex
100
AcDb2dVertex
 10
7.0
 20
-2.5
 30
0.0
  0
SEQEND
  5
12D
330
12C
100
AcDbEntity
  8
______
  0
POLYLINE
  5
133
330
1F
100
AcDbEntity
  8
______
100
AcDb2dPolyline
 66
     1
 10
0.0
 20
0.0
 30
0.0
  0
VERTEX
  5
135
330
133
100
AcDbEntity
  8
______
100
AcDbVertex
100
AcDb2dVertex
 10
173.5
 20
-17.5
 30
0.0
  0
VERTEX
  5
136
330
133
100
AcDbEntity
  8
______
100
AcDbVertex
100
AcDb2dVertex
 10
179.5
 20
-17.5
 30
0.0
  0
VERTEX
  5
137
330
133
100
AcDbEntity
  8
______
100
AcDbVertex
100
AcDb2dVertex
 10
179.5
 20
-13.7
 30
0.0
  0
VERTEX
  5
138
330
133
100
AcDbEntity
  8
______
100
AcDbVertex
100
AcDb2dVertex
 10
173.5
 20
-13.7
 30
0.0
  0
VERTEX
  5
139
330
133
100
AcDbEntity
  8
______
100
AcDbVertex
100
AcDb2dVertex
 10
173.5
 20
-17.5
 30
0.0
  0
SEQEND
  5
134
330
133
100
AcDbEntity
  8
______
  0
ARC
  5
13A
330
1F
100
AcDbEntity
  8
______
100
AcDbCircle
 10
3.0
 20
31.5
 30
0.0
 40
3.0
100
AcDbArc
 50
90.0
 51
180.0
  0
ARC
  5
13B
330
1F
100
AcDbEntity
  8
______
100
AcDbCircle
 10
187.0
 20
-17.5
 30
0.0
 40
3.0
100
AcDbArc
 50
270.0
 51
0.0
  0
POLYLINE
  5
13C
330
1F
100
AcDbEntity
  8
______
100
AcDb2dPolyline
 66
     1
 10
0.0
 20
0.0
 30
0.0
  0
VERTEX
  5
13E
330
13C
100
AcDbEntity
  8
______
100
AcDbVertex
100
AcDb2dVertex
 10
7.0
 20
27.7
 30
0.0
  0
VERTEX
  5
13F
330
13C
100
AcDbEntity
  8
______
100
AcDbVertex
100
AcDb2dVertex
 10
13.0
 20
27.7
 30
0.0
  0
VERTEX
  5
140
330
13C
100
AcDbEntity
  8
______
100
AcDbVertex
100
AcDb2dVertex
 10
13.0
 20
31.5
 30
0.0
  0
VERTEX
  5
141
330
13C
100
AcDbEntity
  8
______
100
AcDbVertex
100
AcDb2dVertex
 10
7.0
 20
31.5
 30
0.0
  0
VERTEX
  5
142
330
13C
100
AcDbEntity
  8
______
100
AcDbVertex
100
AcDb2dVertex
 10
7.0
 20
27.7
 30
0.0
  0
SEQEND
  5
13D
330
13C
100
AcDbEntity
  8
______
  0
ARC
  5
143
330
1F
100
AcDbEntity
  8
______
100
AcDbCircle
 10
3.0
 20
-2.5
 30
0.0
 40
3.0
100
AcDbArc
 50
180.0
 51
270.0
  0
POLYLINE
  5
144
330
1F
100
AcDbEntity
  8
______
100
AcDb2dPolyline
 66
     1
 10
0.0
 20
0.0
 30
0.0
  0
VERTEX
  5
146
330
144
100
AcDbEntity
  8
______
100
AcDbVertex
100
AcDb2dVertex
 10
173.5
 20
42.7
 30
0.0
  0
VERTEX
  5
147
330
144
100
AcDbEntity
  8
______
100
AcDbVertex
100
AcDb2dVertex
 10
179.5
 20
42.7
 30
0.0
  0
VERTEX
  5
148
330
144
100
AcDbEntity
  8
______
100
AcDbVertex
100
AcDb2dVertex
 10
179.5
 20
46.5
 30
0.0
  0
VERTEX
  5
149
330
144
100
AcDbEntity
  8
______
100
AcDbVertex
100
AcDb2dVertex
 10
173.5
 20
46.5
 30
0.0
  0
VERTEX
  5
14A
330
144
100
AcDbEntity
  8
______
100
AcDbVertex
100
AcDb2dVertex
 10
173.5
 20
42.7
 30
0.0
  0
SEQEND
  5
145
330
144
100
AcDbEntity
  8
______
  0
ARC
  5
14B
330
1F
100
AcDbEntity
  8
______
100
AcDbCircle
 10
134.4508599681327
 20
11.2406690427832
 30
0.0
 40
11.11844030725601
100
AcDbArc
 50
293.2571378019534
 51
350.9928948958514
  0
ARC
  5
14C
330
1F
100
AcDbEntity
  8
______
100
AcDbCircle
 10
145.4321980536991
 20
14.5
 30
0.0
 40
5.0
100
AcDbArc
 50
69.42869000604217
 51
90.0
  0
ARC
  5
14D
330
1F
100
AcDbEntity
  8
______
100
AcDbCircle
 10
145.4321980536991
 20
14.5
 30
0.0
 40
5.0
100
AcDbArc
 50
339.4286900060424
 51
0.0
  0
ARC
  5
14E
330
1F
100
AcDbEntity
  8
______
100
AcDbCircle
 10
154.6209783952702
 20
5.869538596740583
 30
0.0
 40
11.65971761223356
100
AcDbArc
 50
60.54355544117814
 51
113.4308695504528
  0
ARC
  5
14F
330
1F
100
AcDbEntity
  8
______
100
AcDbCircle
 10
145.4321980536991
 20
14.5
 30
0.0
 40
15.0
100
AcDbArc
 50
140.8236413050872
 51
153.9338443579664
  0
ARC
  5
150
330
1F
100
AcDbEntity
  8
______
100
AcDbCircle
 10
136.243417712128
 20
23.13046140325943
 30
0.0
 40
11.65971761223356
100
AcDbArc
 50
240.543555441178
 51
293.4308695504528
  0
ARC
  5
151
330
1F
100
AcDbEntity
  8
______
100
AcDbCircle
 10
139.9719144488722
 20
4.43032635121466
 30
0.0
 40
11.11844030725601
100
AcDbArc
 50
338.2571378019521
 51
35.99289489585013
  0
ARC
  5
152
330
1F
100
AcDbEntity
  8
______
100
AcDbCircle
 10
155.5018717024844
 20
9.039716395173144
 30
0.0
 40
11.11844030725601
100
AcDbArc
 50
68.25713780195301
 51
125.992894895851
  0
ARC
  5
153
330
1F
100
AcDbEntity
  8
______
100
AcDbCircle
 10
154.0626594569585
 20
23.68878034157115
 30
0.0
 40
11.65971761223356
100
AcDbArc
 50
150.5435554411812
 51
203.430869550456
  0
ARC
  5
154
330
1F
100
AcDbEntity
  8
______
100
AcDbCircle
 10
145.4321980536991
 20
14.5
 30
0.0
 40
5.0
100
AcDbArc
 50
204.4286900060422
 51
225.0
  0
ARC
  5
155
330
1F
100
AcDbEntity
  8
______
100
AcDbCircle
 10
145.4321980536991
 20
14.5
 30
0.0
 40
15.0
100
AcDbArc
 50
95.82364130508758
 51
108.9338443579665
  0
ARC
  5
156
330
1F
100
AcDbEntity
  8
______
100
AcDbCircle
 10
142.1728670964823
 20
25.48133808556639
 30
0.0
 40
11.11844030725601
100
AcDbArc
 50
203.257137801953
 51
260.992894895851
  0
ARC
  5
157
330
1F
100
AcDbEntity
  8
______
100
AcDbCircle
 10
145.4321980536991
 20
14.5
 30
0.0
 40
15.0
100
AcDbArc
 50
50.82364130508735
 51
63.93384435796622
  0
ARC
  5
158
330
1F
100
AcDbEntity
  8
______
100
AcDbCircle
 10
145.4321980536991
 20
14.5
 30
0.0
 40
5.0
100
AcDbArc
 50
24.42869000604268
 51
45.0
  0
ARC
  5
159
330
1F
100
AcDbEntity
  8
______
100
AcDbCircle
 10
145.4321980536991
 20
14.5
 30
0.0
 40
5.0
100
AcDbArc
 50
159.4286900060426
 51
180.0
  0
ARC
  5
15A
330
1F
100
AcDbEntity
  8
______
100
AcDbCircle
 10
145.037406946354
 20
27.10010667337212
 30
0.0
 40
11.65971761223356
100
AcDbArc
 50
195.5435554411801
 51
248.4308695504548
  0
ARC
  5
15B
330
1F
100
AcDbEntity
  8
______
100
AcDbCircle
 10
145.4321980536991
 20
14.5
 30
0.0
 40
5.0
100
AcDbArc
 50
249.4286900060425
 51
269.9999999999997
  0
ARC
  5
15C
330
1F
100
AcDbEntity
  8
______
100
AcDbCircle
 10
148.6915290109159
 20
3.518661914433608
 30
0.0
 40
11.11844030725601
100
AcDbArc
 50
23.25713780195297
 51
80.99289489585095
  0
ARC
  5
15D
330
1F
100
AcDbEntity
  8
______
100
AcDbCircle
 10
145.4321980536991
 20
14.5
 30
0.0
 40
5.0
100
AcDbArc
 50
294.428690006042
 51
315.0
  0
ARC
  5
15E
330
1F
100
AcDbEntity
  8
______
100
AcDbCircle
 10
145.4321980536991
 20
14.5
 30
0.0
 40
15.0
100
AcDbArc
 50
185.823641305087
 51
198.9338443579662
  0
ARC
  5
15F
330
1F
100
AcDbEntity
  8
______
100
AcDbCircle
 10
150.892481658526
 20
24.56967364878534
 30
0.0
 40
11.11844030725601
100
AcDbArc
 50
158.2571378019547
 51
215.9928948958526
  0
ARC
  5
160
330
1F
100
AcDbEntity
  8
______
100
AcDbCircle
 10
145.4321980536991
 20
14.5
 30
0.0
 40
15.0
100
AcDbArc
 50
230.8236413050873
 51
243.9338443579663
  0
ARC
  5
161
330
1F
100
AcDbEntity
  8
______
100
AcDbCircle
 10
158.0323047270712
 20
14.8947911073451
 30
0.0
 40
11.65971761223356
100
AcDbArc
 50
105.5435554411812
 51
158.430869550456
  0
ARC
  5
162
330
1F
100
AcDbEntity
  8
______
100
AcDbCircle
 10
136.8017366504397
 20
5.311219658428854
 30
0.0
 40
11.65971761223356
100
AcDbArc
 50
330.5435554411777
 51
23.43086955045242
  0
ARC
  5
163
330
1F
100
AcDbEntity
  8
______
100
AcDbCircle
 10
135.3625244049138
 20
19.96028360482688
 30
0.0
 40
11.11844030725601
100
AcDbArc
 50
248.257137801953
 51
305.992894895851
  0
CIRCLE
  5
164
330
1F
100
AcDbEntity
  8
______
100
AcDbCircle
 10
145.4321980536991
 20
14.5
 30
0.0
 40
0.95
  0
ARC
  5
165
330
1F
100
AcDbEntity
  8
______
100
AcDbCircle
 10
145.4321980536991
 20
14.5
 30
0.0
 40
15.0
100
AcDbArc
 50
320.8236413050874
 51
333.9338443579663
  0
ARC
  5
166
330
1F
100
AcDbEntity
  8
______
100
AcDbCircle
 10
145.8269891610442
 20
1.899893326627904
 30
0.0
 40
11.65971761223356
100
AcDbArc
 50
15.5435554411801
 51
68.43086955045487
  0
ARC
  5
167
330
1F
100
AcDbEntity
  8
______
100
AcDbCircle
 10
145.4321980536991
 20
14.5
 30
0.0
 40
5.0
100
AcDbArc
 50
114.4286900060424
 51
134.9999999999999
  0
ARC
  5
168
330
1F
100
AcDbEntity
  8
______
100
AcDbCircle
 10
156.4135361392655
 20
17.7593309572168
 30
0.0
 40
11.11844030725601
100
AcDbArc
 50
113.2571378019534
 51
170.9928948958514
  0
ARC
  5
169
330
1F
100
AcDbEntity
  8
______
100
AcDbCircle
 10
145.4321980536991
 20
14.5
 30
0.0
 40
15.0
100
AcDbArc
 50
5.8236413050872
 51
18.93384435796626
  0
ARC
  5
16A
330
1F
100
AcDbEntity
  8
______
100
AcDbCircle
 10
145.4321980536991
 20
14.5
 30
0.0
 40
15.0
100
AcDbArc
 50
275.8236413050872
 51
288.9338443579663
  0
ARC
  5
16B
330
1F
100
AcDbEntity
  8
______
100
AcDbCircle
 10
132.832091380327
 20
14.1052088926549
 30
0.0
 40
11.65971761223356
100
AcDbArc
 50
285.5435554411774
 51
338.4308695504521
  0
CIRCLE
  5
16C
330
1F
100
AcDbEntity
  8
______
100
AcDbCircle
 10
145.4321980536991
 20
14.5
 30
0.0
 40
20.0
  0
ENDSEC
  0
SECTION
  2
OBJECTS
  0
DICTIONARY
  5
C
330
0
100
AcDbDictionary
281
     1
  3
ACAD_GROUP
350
D
  3
ACAD_LAYOUT
350
1A
  3
ACAD_MLINESTYLE
350
17
  3
ACAD_PLOTSETTINGS
350
19
  3
ACAD_PLOTSTYLENAME
350
E
  3
ACAD_TABLESTYLE
350
16D
  3
ACAD_VISUALSTYLE
350
2A
  0
DICTIONARY
  5
D
102
{ACAD_REACTORS
330
C
102
}
330
C
100
AcDbDictionary
281
     1
  0
DICTIONARY
  5
1A
102
{ACAD_REACTORS
330
C
102
}
330
C
100
AcDbDictionary
281
     1
  3
Layout1
350
1E
  3
Layout2
350
26
  3
Model
350
22
  0
DICTIONARY
  5
17
102
{ACAD_REACTORS
330
C
102
}
330
C
100
AcDbDictionary
281
     1
  3
Standard
350
18
  0
DICTIONARY
  5
19
102
{ACAD_REACTORS
330
C
102
}
330
C
100
AcDbDictionary
281
     1
  0
ACDBDICTIONARYWDFLT
  5
E
102
{ACAD_REACTORS
330
C
102
}
330
C
100
AcDbDictionary
281
     1
  3
Normal
350
F
100
AcDbDictionaryWithDefault
340
F
  0
DICTIONARY
  5
16D
102
{ACAD_REACTORS
330
C
102
}
330
C
100
AcDbDictionary
281
     1
  0
DICTIONARY
  5
2A
102
{ACAD_REACTORS
330
C
102
}
330
C
100
AcDbDictionary
281
     1
  3
2dWireframe
350
2F
  3
3D Hidden
350
31
  3
3dWireframe
350
30
  3
Basic
350
32
  3
Brighten
350
36
  3
ColorChange
350
3A
  3
Conceptual
350
34
  3
Dim
350
35
  3
Facepattern
350
39
  3
Flat
350
2B
  3
FlatWithEdges
350
2C
  3
Gouraud
350
2D
  3
GouraudWithEdges
350
2E
  3
Linepattern
350
38
  3
Realistic
350
33
  3
Thicken
350
37
  0
LAYOUT
  5
1E
102
{ACAD_REACTORS
330
1A
102
}
330
1A
100
AcDbPlotSettings
  1

  2
none_device
  4

  6

 40
0.0
 41
0.0
 42
0.0
 43
0.0
 44
0.0
 45
0.0
 46
0.0
 47
0.0
 48
0.0
 49
0.0
140
0.0
141
0.0
142
1.0
143
1.0
 70
   688
 72
     0
 73
     0
 74
     5
  7

 75
    16
 76
     0
 77
     2
 78
   300
147
1.0
148
0.0
149
0.0
100
AcDbLayout
  1
Layout1
 70
     1
 71
     1
 10
0.0
 20
0.0
 11
12.0
 21
9.0
 12
0.0
 22
0.0
 32
0.0
 14
1.000000000000000E+20
 24
1.000000000000000E+20
 34
1.000000000000000E+20
 15
-1.000000000000000E+20
 25
-1.000000000000000E+20
 35
-1.000000000000000E+20
146
0.0
 13
0.0
 23
0.0
 33
0.0
 16
1.0
 26
0.0
 36
0.0
 17
0.0
 27
1.0
 37
0.0
 76
     0
330
1B
  0
LAYOUT
  5
26
102
{ACAD_REACTORS
330
1A
102
}
330
1A
100
AcDbPlotSettings
  1

  2
none_device
  4

  6

 40
0.0
 41
0.0
 42
0.0
 43
0.0
 44
0.0
 45
0.0
 46
0.0
 47
0.0
 48
0.0
 49
0.0
140
0.0
141
0.0
142
1.0
143
1.0
 70
   688
 72
     0
 73
     0
 74
     5
  7

 75
    16
 76
     0
 77
     2
 78
   300
147
1.0
148
0.0
149
0.0
100
AcDbLayout
  1
Layout2
 70
     1
 71
     2
 10
0.0
 20
0.0
 11
0.0
 21
0.0
 12
0.0
 22
0.0
 32
0.0
 14
0.0
 24
0.0
 34
0.0
 15
0.0
 25
0.0
 35
0.0
146
0.0
 13
0.0
 23
0.0
 33
0.0
 16
1.0
 26
0.0
 36
0.0
 17
0.0
 27
1.0
 37
0.0
 76
     0
330
23
  0
LAYOUT
  5
22
102
{ACAD_REACTORS
330
1A
102
}
330
1A
100
AcDbPlotSettings
  1

  2
none_device
  4

  6

 40
0.0
 41
0.0
 42
0.0
 43
0.0
 44
0.0
 45
0.0
 46
0.0
 47
0.0
 48
0.0
 49
0.0
140
0.0
141
0.0
142
1.0
143
1.0
 70
  1712
 72
     0
 73
     0
 74
     0
  7

 75
     0
 76
     0
 77
     2
 78
   300
147
1.0
148
0.0
149
0.0
100
AcDbLayout
  1
Model
 70
     1
 71
     0
 10
0.0
 20
0.0
 11
12.0
 21
9.0
 12
0.0
 22
0.0
 32
0.0
 14
0.0
 24
-20.5
 34
0.0
 15
190.0
 25
106.0
 35
0.0
146
0.0
 13
0.0
 23
0.0
 33
0.0
 16
1.0
 26
0.0
 36
0.0
 17
0.0
 27
1.0
 37
0.0
 76
     0
330
1F
331
29
  0
MLINESTYLE
  5
18
102
{ACAD_REACTORS
330
17
102
}
330
17
100
AcDbMlineStyle
  2
Standard
 70
     0
  3

 62
   256
 51
90.0
 52
90.0
 71
     2
 49
0.5
 62
   256
  6
BYLAYER
 49
-0.5
 62
   256
  6
BYLAYER
  0
ACDBPLACEHOLDER
  5
F
102
{ACAD_REACTORS
330
E
102
}
330
E
  0
VISUALSTYLE
  5
2F
102
{ACAD_REACTORS
330
2A
102
}
330
2A
100
AcDbVisualStyle
  2
2dWireframe
 70
     4
 71
     0
 72
     2
 73
     0
 90
        0
 40
-0.6
 41
-30.0
 62
     5
 63
     7
421
 16777215
 74
     1
 91
        4
 64
     7
 65
   257
 75
     1
175
     1
 42
1.0
 92
        0
 66
   257
 43
1.0
 76
     1
 77
     6
 78
     2
 67
     7
 79
     5
170
     0
171
     0
290
     0
174
     0
 93
        1
 44
0.0
173
     0
291
     0
 45
0.0
1001
ACAD
1000
AcDbSavedByObjectVersion
1070
     0
  0
VISUALSTYLE
  5
31
102
{ACAD_REACTORS
330
2A
102
}
330
2A
100
AcDbVisualStyle
  2
3D Hidden
 70
     6
 71
     1
 72
     2
 73
     2
 90
        0
 40
-0.6
 41
-30.0
 62
     5
 63
     7
421
 16777215
 74
     2
 91
        2
 64
     7
 65
   257
 75
     2
175
     1
 42
40.0
 92
        0
 66
   257
 43
1.0
 76
     1
 77
     6
 78
     2
 67
     7
 79
     3
170
     0
171
     0
290
     0
174
     0
 93
        1
 44
0.0
173
     0
291
     0
 45
0.0
1001
ACAD
1000
AcDbSavedByObjectVersion
1070
     0
  0
VISUALSTYLE
  5
30
102
{ACAD_REACTORS
330
2A
102
}
330
2A
100
AcDbVisualStyle
  2
3dWireframe
 70
     5
 71
     0
 72
     2
 73
     0
 90
        0
 40
-0.6
 41
-30.0
 62
     5
 63
     7
421
 16777215
 74
     1
 91
        4
 64
     7
 65
   257
 75
     1
175
     1
 42
1.0
 92
        0
 66
   257
 43
1.0
 76
     1
 77
     6
 78
     2
 67
     7
 79
     5
170
     0
171
     0
290
     0
174
     0
 93
        1
 44
0.0
173
     0
291
     0
 45
0.0
1001
ACAD
1000
AcDbSavedByObjectVersion
1070
     0
  0
VISUALSTYLE
  5
32
102
{ACAD_REACTORS
330
2A
102
}
330
2A
100
AcDbVisualStyle
  2
Basic
 70
     7
 71
     1
 72
     0
 73
     1
 90
        0
 40
-0.6
 41
-30.0
 62
     5
 63
     7
421
 16777215
 74
     0
 91
        4
 64
     7
 65
   257
 75
     1
175
     1
 42
1.0
 92
        8
 66
     7
 43
1.0
 76
     1
 77
     6
 78
     2
 67
     7
 79
     5
170
     0
171
     0
290
     0
174
     0
 93
        1
 44
0.0
173
     0
291
     1
 45
0.0
1001
ACAD
1000
AcDbSavedByObjectVersion
1070
     0
  0
VISUALSTYLE
  5
36
102
{ACAD_REACTORS
330
2A
102
}
330
2A
100
AcDbVisualStyle
  2
Brighten
 70
    12
 71
     2
 72
     2
 73
     0
 90
        0
 40
-0.6
 41
-30.0
 62
     5
 63
     7
421
 16777215
 74
     1
 91
        4
 64
     7
 65
   257
 75
     1
175
     1
 42
1.0
 92
        8
 66
     7
 43
1.0
 76
     1
 77
     6
 78
     2
 67
     7
 79
     5
170
     0
171
     0
290
     0
174
     0
 93
        1
 44
50.0
173
     0
291
     1
 45
0.0
1001
ACAD
1000
AcDbSavedByObjectVersion
1070
     0
  0
VISUALSTYLE
  5
3A
102
{ACAD_REACTORS
330
2A
102
}
330
2A
100
AcDbVisualStyle
  2
ColorChange
 70
    16
 71
     2
 72
     2
 73
     3
 90
        0
 40
-0.6
 41
-30.0
 62
     5
 63
     8
421
  8421504
 74
     1
 91
        4
 64
     7
 65
   257
 75
     1
175
     1
 42
1.0
 92
        8
 66
     8
424
  8421504
 43
1.0
 76
     1
 77
     6
 78
     2
 67
     7
 79
     5
170
     0
171
     0
290
     0
174
     0
 93
        1
 44
0.0
173
     0
291
     1
 45
0.0
1001
ACAD
1000
AcDbSavedByObjectVersion
1070
     0
  0
VISUALSTYLE
  5
34
102
{ACAD_REACTORS
330
2A
102
}
330
2A
100
AcDbVisualStyle
  2
Conceptual
 70
     9
 71
     3
 72
     2
 73
     0
 90
        0
 40
-0.6
 41
-30.0
 62
     5
 63
     7
421
 16777215
 74
     2
 91
        2
 64
     7
 65
   257
 75
     1
175
     1
 42
40.0
 92
        8
 66
     7
 43
1.0
 76
     1
 77
     6
 78
     2
 67
     7
 79
     3
170
     0
171
     0
290
     0
174
     0
 93
        1
 44
0.0
173
     0
291
     0
 45
0.0
1001
ACAD
1000
AcDbSavedByObjectVersion
1070
     0
  0
VISUALSTYLE
  5
35
102
{ACAD_REACTORS
330
2A
102
}
330
2A
100
AcDbVisualStyle
  2
Dim
 70
    11
 71
     2
 72
     2
 73
     0
 90
        0
 40
-0.6
 41
-30.0
 62
     5
 63
     7
421
 16777215
 74
     1
 91
        4
 64
     7
 65
   257
 75
     1
175
     1
 42
1.0
 92
        8
 66
     7
 43
1.0
 76
     1
 77
     6
 78
     2
 67
     7
 79
     5
170
     0
171
     0
290
     0
174
     0
 93
        1
 44
-50.0
173
     0
291
     1
 45
0.0
1001
ACAD
1000
AcDbSavedByObjectVersion
1070
     0
  0
VISUALSTYLE
  5
39
102
{ACAD_REACTORS
330
2A
102
}
330
2A
100
AcDbVisualStyle
  2
Facepattern
 70
    15
 71
     2
 72
     2
 73
     0
 90
        0
 40
-0.6
 41
-30.0
 62
     5
 63
     7
421
 16777215
 74
     1
 91
        4
 64
     7
 65
   257
 75
     1
175
     1
 42
1.0
 92
        8
 66
     7
 43
1.0
 76
     1
 77
     6
 78
     2
 67
     7
 79
     5
170
     0
171
     0
290
     0
174
     0
 93
        1
 44
0.0
173
     0
291
     1
 45
0.0
1001
ACAD
1000
AcDbSavedByObjectVersion
1070
     0
  0
VISUALSTYLE
  5
2B
102
{ACAD_REACTORS
330
2A
102
}
330
2A
100
AcDbVisualStyle
  2
Flat
 70
     0
 71
     2
 72
     1
 73
     1
 90
        2
 40
-0.6
 41
30.0
 62
     5
 63
     7
421
 16777215
 74
     0
 91
        4
 64
     7
 65
   257
 75
     1
175
     1
 42
1.0
 92
        8
 66
     7
 43
1.0
 76
     1
 77
     6
 78
     2
 67
     7
 79
     5
170
     0
171
     0
290
     0
174
     0
 93
       13
 44
0.0
173
     0
291
     1
 45
0.0
1001
ACAD
1000
AcDbSavedByObjectVersion
1070
     0
  0
VISUALSTYLE
  5
2C
102
{ACAD_REACTORS
330
2A
102
}
330
2A
100
AcDbVisualStyle
  2
FlatWithEdges
 70
     1
 71
     2
 72
     1
 73
     1
 90
        2
 40
-0.6
 41
30.0
 62
     5
 63
     7
421
 16777215
 74
     1
 91
        4
 64
     7
 65
   257
 75
     1
175
     1
 42
1.0
 92
        0
 66
   257
 43
1.0
 76
     1
 77
     6
 78
     2
 67
     7
 79
     5
170
     0
171
     0
290
     0
174
     0
 93
       13
 44
0.0
173
     0
291
     1
 45
0.0
1001
ACAD
1000
AcDbSavedByObjectVersion
1070
     0
  0
VISUALSTYLE
  5
2D
102
{ACAD_REACTORS
330
2A
102
}
330
2A
100
AcDbVisualStyle
  2
Gouraud
 70
     2
 71
     2
 72
     2
 73
     1
 90
        2
 40
-0.6
 41
30.0
 62
     5
 63
     7
421
 16777215
 74
     0
 91
        4
 64
     7
 65
   257
 75
     1
175
     1
 42
1.0
 92
        0
 66
     7
 43
1.0
 76
     1
 77
     6
 78
     2
 67
     7
 79
     5
170
     0
171
     0
290
     0
174
     0
 93
       13
 44
0.0
173
     0
291
     1
 45
0.0
1001
ACAD
1000
AcDbSavedByObjectVersion
1070
     0
  0
VISUALSTYLE
  5
2E
102
{ACAD_REACTORS
330
2A
102
}
330
2A
100
AcDbVisualStyle
  2
GouraudWithEdges
 70
     3
 71
     2
 72
     2
 73
     1
 90
        2
 40
-0.6
 41
30.0
 62
     5
 63
     7
421
 16777215
 74
     1
 91
        4
 64
     7
 65
   257
 75
     1
175
     1
 42
1.0
 92
        0
 66
   257
 43
1.0
 76
     1
 77
     6
 78
     2
 67
     7
 79
     5
170
     0
171
     0
290
     0
174
     0
 93
       13
 44
0.0
173
     0
291
     1
 45
0.0
1001
ACAD
1000
AcDbSavedByObjectVersion
1070
     0
  0
VISUALSTYLE
  5
38
102
{ACAD_REACTORS
330
2A
102
}
330
2A
100
AcDbVisualStyle
  2
Linepattern
 70
    14
 71
     2
 72
     2
 73
     0
 90
        0
 40
-0.6
 41
-30.0
 62
     5
 63
     7
421
 16777215
 74
     1
 91
        4
 64
     7
 65
   257
 75
     7
175
     7
 42
1.0
 92
        8
 66
     7
 43
1.0
 76
     1
 77
     6
 78
     2
 67
     7
 79
     5
170
     0
171
     0
290
     0
174
     0
 93
        1
 44
0.0
173
     0
291
     1
 45
0.0
1001
ACAD
1000
AcDbSavedByObjectVersion
1070
     0
  0
VISUALSTYLE
  5
33
102
{ACAD_REACTORS
330
2A
102
}
330
2A
100
AcDbVisualStyle
  2
Realistic
 70
     8
 71
     2
 72
     2
 73
     0
 90
        0
 40
-0.6
 41
-30.0
 62
     5
 63
     7
421
 16777215
 74
     1
 91
        0
 64
     7
 65
   257
 75
     1
175
     1
 42
1.0
 92
        8
 66
     8
424
  7895160
 43
1.0
 76
     1
 77
     6
 78
     2
 67
     7
 79
     5
170
     0
171
     0
290
     0
174
     0
 93
       13
 44
0.0
173
     0
291
     0
 45
0.0
1001
ACAD
1000
AcDbSavedByObjectVersion
1070
     0
  0
VISUALSTYLE
  5
37
102
{ACAD_REACTORS
330
2A
102
}
330
2A
100
AcDbVisualStyle
  2
Thicken
 70
    13
 71
     2
 72
     2
 73
     0
 90
        0
 40
-0.6
 41
-30.0
 62
     5
 63
     7
421
 16777215
 74
     1
 91
        4
 64
     7
 65
   257
 75
     1
175
     1
 42
1.0
 92
       12
 66
     7
 43
1.0
 76
     1
 77
     6
 78
     2
 67
     7
 79
     5
170
     0
171
     0
290
     0
174
     0
 93
        1
 44
0.0
173
     0
291
     1
 45
0.0
1001
ACAD
1000
AcDbSavedByObjectVersion
1070
     0
  0
ENDSEC
  0
EOF
